Hidden In Plain View - 20 Below Chords & Tabs

 

20 Below Chords & Tabs

Hidden In Plain View Chords & Tabs

Version: 1 Type: Tab 0 ratings
1 star 2 stars 3 stars 4 stars 5 stars
comments

20 Below Tab

this is a tab for "20 below" by "Hidden in Plain View". They are a new band
signed to "Drive Thru Records" w/ and ep coming out november 11th. hope you
enjoy it. its a fairly simple song, and go out and buy the ep, its amazing! 


                            ....Standard tuninG....

main riff of the song.

<--------------------------------------->
<--------------------------------------->
<--------5-------7~~~5------------------>
<----2---5---5---7~~~5------------------>
<----2---3---5---5~~~3------------------>
<----0-------3-------------------------->

<------2/3/2/5/2/3/2-------------------->
<--1~~~-------------1~~~---------------->
<--------------------------------------->
<--------------------------------------->
<--------------------------------------->
<--------------------------------------->

then use this, but palm mute it to the rhythm.
[ Tab from: http://www.guitartabs.cc/tabs/h/hidden_in_plain_view/20_below_tab.html ]
<---------------------------------->
<---------------------------------->
<-----------7~~~5------------------>
<----2--5---7~~~5------------------>
<----2--5---5~~~3------------------>
<----0--3-------------------------->

repeat but plam mute slightly different w/ a change in pick technique.

(solo)

<-----5---5--------2/3/5~~3------2/3/5~~3------------------>
<---3---3---3-/-5-----------3-/5----------1~~~3~~~5~~~----->
<---------------------------------------------------------->
<---------------------------------------------------------->
<---------------------------------------------------------->
<---------------------------------------------------------->

then at the very end you can just end with..

<----------------------2------------------>
<---------------------2------------------->
<-----5-----7--------0-------------------->
<--2--5--5--7-------2--------------------->
<--2--3--5--5------2---------------------->
<--0-----3--------0----------------------->



any questions, you can just email me at makemesad00@aol.com. peece and have fun..
Comments