Hidden In Plain View - 20 Below Chords & Tabs

 

20 Below Chords & Tabs

Hidden In Plain View Chords & Tabs

Version: 1 Type: Bass Tab 0 ratings
1 star 2 stars 3 stars 4 stars 5 stars
comments

20 Below Bass Tab

Tabbed by Pete Earnshaw

Here's the tab for Hidden in plain view's unreleased track 'Twenty Below', it's 
simple to play and features on the compilation cd 'Drive thru invasion tour compilation'!

Intro/Verse/Chorus:

Start intro at 0:33

G ---------------------------------------------------|
D ---------------------------------------------------|
A --------------------------3-3-3-3-3-3-3-3-3-3-3-3--|
E --0-0-0-0-0-0-0-0-0-0-0-0--------------------------|

G -------------------------------------------------------|
D -------------------------------------------------------|
A --------------------------5-5-5-5-5-5-5-3-3-3-3-3-3-3--|
E --3-3-3-3-3-3-3-3-3-3-3-3------------------------------|


After the first chorus play:
[ Tab from: http://www.guitartabs.cc/tabs/h/hidden_in_plain_view/20_below_btab.html ]
G ---------------------------------------------------|
D ---------------------------------------------------|
A --------------------------3-3-3-3-3-3-3-3-3-3-3-3--|
E --0-0-0-0-0-0-0-0-0-0-0-0--------------------------|


Break:

G -----------------------------------------------------|
D -----------------------------------------------------|
A -----------------------------------------------------|
E --0-0-0-0-0-0-0-0-0-0-0-0--3-3-3-3-3-3-3-3-3-3-3-3---|

G -------------------------------------------------------|
D -------------------------------------------------------|
A --5-5-5-5-5-5-5-5-5-5-5-5--3-3-3-3-3-3-5-5-5-5-3-3-3-3-|
E -------------------------------------------------------|


Structure:

Intro
Verse
Chorus
Post-Chorus
Verse
Chorus
Break/Outro
Comments