Hiatt John - Have A Little Faith In Me Chords & Tabs

 

Have A Little Faith In Me Chords & Tabs

Hiatt John Chords & Tabs

Version: 1 Type: Tab 0 ratings
1 star 2 stars 3 stars 4 stars 5 stars
comments

Have A Little Faith In Me Tab

Capo on 1st fret
can be played without capo but fingering gets more difficult

tab is capoed (if it says 0, it would be 1, without the capo)


verse:
-----0-0---0-0-0-0--0-0--0-0-0-0------------------
-----0-0---0-0-0-0--0-0--0-0-0-0------------------
-------------------------------------------------
--2----------------------------------------------
--------4---------0------------------------------
------------------------0-------------------------

[ Tab from: http://www.guitartabs.cc/tabs/h/hiatt_john/have_a_little_faith_in_me_tab.html ]
chorus:
--9-9--7-7--4-4--2-2--0-0--0-0------------------------------
--9-9--7-7--5-5--4-4--0-0--0-0------------------
-----------------------------------------
-------------------------------------------
--7777-6666-4444-2222-0000-2222-----0-2---------------
--------------------------------0-24----------

The song is played on piano so its hard to get it exactly right.
But this works pretty good.  just mess around with the fingering.
Didn't get the key change, but the rest is good.
Comments