Hi Standard - Pink Panther Cover Chords & Tabs

 

Pink Panther Cover Chords & Tabs

Hi Standard Chords & Tabs

Version: 1 Type: Tab 1 rating
1 star 2 stars 3 stars 4 stars 5 stars
comments

Pink Panther Cover Tab

chord:
|-----------------------------------------|
|---9-9-8-8-9-9-9-9-15-15-9-9-15-15-9-9---|
|---9-9-8-8-9-9-9-9-15-15-9-9-15-15-9-9---|
|---9-9-8-8-9-9-9-9-15-15-9-9-15-15-9-9---|
|---7-7-6-6-7-7-7-7-13-13-7-7-13-13-7-7---|
|-----------------------------------------|

riff:
|---------------------------------------------| x3
|---------------------------------------------|
|---6-7-8-9-9-9-9-9-9-9-9-9-3-3-3-3-3-3-3-3---|
|---6-7-8-9-9-9-9-9-9-9-9-9-3-3-3-3-3-3-3-3---|
|---4-5-6-7-7-7-7-7-7-7-7-7-1-1-1-1-1-1-1-1---|
[ Tab from: http://www.guitartabs.cc/tabs/h/hi_standard/pink_panther_cover_tab.html ]
Comments