Hi-standard - Pink Panther Chords & Tabs

 

Pink Panther Chords & Tabs

Hi-standard Chords & Tabs

Version: 2 Type: Bass Tab 0 ratings
1 star 2 stars 3 stars 4 stars 5 stars
comments

Pink Panther Bass Tab

   
I've made a few changes and this one is totally correct
the other guy made a mistake sometimes

INTRO
G]--------------]
D]-6-7-8-9------]
A]-4-5-6-7------]
E]----------7-0-]

PART A
G]---------------------5-4-------------------]
D]---------4-5-----4-5-------5-9-8---5-------]
A]-4-5-6-7-----6-7---------7-----------7-5-7-]
E]-------------------------------------------]
[ Tab from: http://www.guitartabs.cc/tabs/h/hi_standard/pink_panther_btab_ver_2.html ]
PART B
G]---------------------5-4-----7-5-]
D]---------4-5-----4-5-------5-----]
A]-4-5-6-7-----6-7---------7-------]
E]---------------------------------]

REPEAT PART A

ENDING
G]---------9-7-----------------------------------]
D]--------------9-7-5---8-7-8-7-8-7-5------------]
A]-4-5-6-7----------- 7----------------7-5-7-----]
E]-------------------------------------------7-0-]

Enjoy
Comments