Hi-standard - My Sweet Dog Chords & Tabs

 

My Sweet Dog Chords & Tabs

Hi-standard Chords & Tabs

Version: 1 Type: Bass Tab 0 ratings
1 star 2 stars 3 stars 4 stars 5 stars
comments

My Sweet Dog Bass Tab

-----------------------------------------------------------------------
               MY SWEET DOG -HI-STANDARD      
-----------------------------------------------------------------------

> MEANS STRUM
[ Tab from: http://www.guitartabs.cc/tabs/h/hi_standard/my_sweet_dog_btab.html ]
INTRO(repeat whole thing twice)
G]-----------------]   [-----------------------]
D]-----------------]x2 [-----------------------]
A]-5-5-------------]   [-5-5-----------------5-]
E]-----2-2-3-3-5-5-]   [-----2-2-3-3-5-5-3-3---]

VERSE(repeat whole thing twice)
G]-----------------]   [---------------]
D]-----4-4-5-5-7-7-]   [---------------]
A]-5-5-------------]x3 [-5-4-2-------5-]
E]-----------------]   [-------5-3-3---]

CHORUS
G]-------------]
D]-------------]
A]-5>----------]
E]----2>-3>-5>-]

INTRO

VERSE

CHORUS

INTRO(different strumming)



Comments