Hi-standard - In The Bright Moonlight Chords & Tabs

 

In The Bright Moonlight Chords & Tabs

Hi-standard Chords & Tabs

Version: 1 Type: Bass Tab 0 ratings
1 star 2 stars 3 stars 4 stars 5 stars
comments

In The Bright Moonlight Bass Tab

-----------------------------------------------------------------------
              IN THE BRIGHTLY MOONLIGHT    HI STANDARD
-----------------------------------------------------------------------

>Means Strum

INTROx2
G]-----------------------------]
D]-----------------------------]
A]-----------------4-5-5-4-5-7-]
E]-0-2-4-5-5-4-2-2-------------]

VERSE
G]-------------]
D]-------------]
A]-------5>----]
E]-5>-2>----0>-]

PRE-CHORUS
G]-------------]
D]-------------]
A]-------5>-7>-]
E]-5>-2>-------]

CHORUS
G]-------------------------------------------------------------------]
D]------------------------------------------------6-7-7--------------]
A]-5-5-4-5-7-7---------------\7-9-7-5-5-4-5-7-7-9-------9-9-9------5-]
E]-------------2-4-5-5-4-5-2----------------------------------2-2-2--]

VERSE
PRECHORUS
CHORUS
[ Tab from: http://www.guitartabs.cc/tabs/h/hi_standard/in_the_bright_moonlight_btab.html ]
SOLO
G]---------------------------------------------------------------
D]---------7-6-7-6-9-7-6-----------------------9-----------------
A]---4-5-7---------------9-9-9-9-7-10-10-7---9---9---------4-5-7-
E]-5---------------------------------------7-------4-5-7-7-------

-------------------------------------------------------------------------
-----------------------------6-9-----------4-3-1-----------------6-6-7-7-
---7-5-4---0-2-4-5-4-2-0-7-9-------4-5-7---------5-4-2-4-7-7-9-9---------
-5-------2-----------------------5-------2-------------------------------

--------------------------------------------------------------------------
--------------------------------------------------------------------------
-5-5-5-5-7-5-5-4-4------------9-7-7-5-5-4-4-5-5-5-5-7-5-5-4-4-------------
-------------------7-7-5-5-5-5--------------------------------7-7-5-5-5-5-

------------------------------------------------------------------------
--------------------------6-7-7-7-7-6-7-9-7-6---------------------------
----/-9>--5---5---7---7-----------------------9-------4---4-5-7-7-7-5-5-
-2-/--------5---5---7---7-----------------------7-5-7---7---------------

---------]
---------]
-4-4-4---]
-------7-]

PRE-CHORUSx8

OUTRO
G]-------7--7-6-----]
D]---/-7--------9-7-]
A]-5----------------]
E]------------------]



Comments