Hi Standard - California Dreaming Chords & Tabs

 

California Dreaming Chords & Tabs

Hi Standard Chords & Tabs

Version: 3 Type: Tab 0 ratings
1 star 2 stars 3 stars 4 stars 5 stars
comments

California Dreaming Tab

   
-------------------------------------------------------------------------------
			     California Dreaming - Hi-Standard
-------------------------------------------------------------------------------

Tabbed by:Ricardo Cricco
Email:rcricco@hotmail.com

Tuning:EADGBE

Intro

              Riff A
e|-----1---------------------------|-------------------------------|
B|-------3-----1-------3-------1---|---2---2-----2-3-----------3---|
G|---2-----------0-------3-------0-|-----2---2-------2-----------3-|
D|-0---------2-------3-------2-----|-------------------2-----3-----|
A|---------3-------1-------3-------|-0---------0---------0-1-------|
E|---------------------------------|-------------------------------|
         Play 3 times
                                                Riff B
e|---------------------1-----------|---------------------------------|
B|-----1-------1---------3-----3---|-----2---2-----2-3-------2-------|
G|-------2-------0---2-----------3-|---2---2---2-------2-------2-----|
D|---3-------2-----0---------3-----|---------------------2-------2---|
A|---------3---------------1-------|-0-----------0---------0-------0-|
E|-1-------------------------------|---------------------------------|

Play Riff A
Play Riff B
Play Riff A

e|--------------------|
B|-----3---3---3---2--|
G|---2---2---2---2-2--|  Volume Swell
D|-----------------2--|
A|-0---------------0--|
E|--------------------|

Verse
e|----------------|-----------------|----------------|------------------|
B|----------------|-----------------|----------------|------------------|
G|-77-755-533-355-|5----------------|-----55-577-7---|------------------|
D|-77-755-533-355-|577-777-777-7-8\-|-33-355-577-788-|877-777-777-777-7-|
A|-55-533-311-133-|377-777-777-7-8\-|-33-333-355-588-|877-777-777-777-7-|
E|----------------|-55-555-555-5-6\-|-11-1--------66-|655-555-555-555-5-|

e|-----------------------------------------------------------------|
B|-----------------------------------------------------------------|
G|-----------------------------------------------------------------|
D|-----------------------------------------------------------------|
A|-5-5-5-0-3-3-3-0-1-1-1-0-3-3-3-0---------------------------------|
E|---------------------------------5-5-5-5-5-5-5-5-5-5-5-5-5-5-5-5-|

   ------------------------------P.M------------------------------

e|----------------|------------------|
B|----------------|------------------|
G|-77-755-533-355-|5-----------------|
D|-77-755-533-355-|577-777-777-777-7-|
A|-55-533-311-133-|377-777-777-777-7-|
E|----------------|-55-555-555-555-5-|
      
Play Verse Again

Guitar 1 (w/ Guitar 2)
e|-----------------------------------------|-----------------------------|
B|-----------------------------------------|-----------------------------|
G|-----------------------------------------|-----------------------------|
D|-3--3----3--3--3----3--3----5-7-8-7-5----|-22-222-233-3----------------|
A|-5--5----5--5--5----5--5----5-7-8-7-5----|-33-344-455-588-877-777-77~--|
E|----------------------------3-5-6-5-3----|-------------66-655-555-55~--|
             Repeat

Guitar 2
e|-----------------------------------------|-----------------------------|
B|-----------------------------------------|-----------------------------|
G|-10-10---10-10-10---10-10---9-10-12-10-9-|-------------10-12-10-14~----|
D|-----------------------------------------|-----------------------------|
A|-8--8----8--8--8----8--8----7-8--10-8--7-|-------------8--10-8--12~----|
E|-----------------------------------------|-----------------------------|
             Repeat
[ Tab from: http://www.guitartabs.cc/tabs/h/hi_standard/california_dreaming_tab_ver_3.html ]
Solo
e|------------------------------10-12-13-12p10h12p10----10-----------12-13-15
B|----13----15p13b(15)~~~----10----------------------13----13b(15)~----------
G|-14----14------------------------------------------------------------------
D|---------------------------------------------------------------------------
A|---------------------------------------------------------------------------
E|---------------------------------------------------------------------------

e|-13-12h13p12----12---------------------------------------------------------
B|-------------15----15-13----13h15~~~-----------6-8p6---6-8b(9)p6-8b(10)~~--
G|-------------------------14-------------/7-7-7-------7---------------------
D|---------------------------------------------------------------------------
A|---------------------------------------------------------------------------
E|---------------------------------------------------------------------------

e|-----------9~---------|
B|-/10-11-10----11-10~--|
G|----------------------|
D|----------------------|
A|----------------------|
E|----------------------|

e|-----------------------------------------------------------|
B|-----------------------------------------------------------|
G|-----------------------------------------------------------|
D|-------------------------------------------------------7-5-|
A|---------------------------------------------------3-4-8-7-|
E|-5-5-5-5-5-5-5-5-5-5-5-5-5-5-5-5-5-5-5-5-5-5-5-5-5---------|

   -----------------------P.M---------------------

e|----------------|-----------------|----------------|------------------|
B|----------------|-----------------|----------------|------------------|
G|-77-755-533-355-|5----------------|-----55-577-7---|------------------|
D|-77-755-533-355-|577-777-777-7-8\-|-33-355-577-788-|877-777-777-777-7-|
A|-55-533-311-133-|377-777-777-7-8\-|-33-333-355-588-|877-777-777-777-7-|
E|----------------|-55-555-555-5-6\-|-11-1--------66-|655-555-555-555-5-|

e|-----------------------------------------------------------------|
B|-----------------------------------------------------------------|
G|-----------------------------------------------------------------|
D|-----------------------------------------------------------------|
A|-5-5-5-0-3-3-3-0-1-1-1-0-3-3-3-0---------------------------------|
E|---------------------------------5-5-5-5-5-5-5-5-5-5-5-5-5-5-5-5-|

   ------------------------------P.M------------------------------
   
                                               Riff C
e|----------------|----------------|---------------------------------|------|
B|----------------|----------------|---------------------------------|------|
G|-77-755-533-355-|577-755-533-355-|---------------------------------|-77\--|
D|-77-755-533-355-|577-755-533-355-|-------7-------5-------3-------5-|-77\--|
A|-55-533-311-133-|355-533-311-133-|-5-5-5---3-3-3---1-1-1---3-3-3---|-55\--|
E|----------------|----------------|---------------------------------|------|
                     Play 3 times              Play 4 times
                                     --------------P.M--------------

(Another guitar enters after playing Riff C for the 2nd time)
e|--------------------------------|
B|--------------------------------|
G|-7-9-10-12-14-12-10-9-7-7-------|
D|--------------------------------|
A|-5-7-8--10-12-10-8--7-5-5-/12\--|
E|--------------------------------|

| /  slide up
| \  slide down
| h  hammer-on
| p  pull-off
| ~  vibrato
| +  harmonic
| x  Mute note
| B  bend

That is pretty much what I could tab out. You'll definitely need to listen
the CD for the timing during the solo. Feel free to make any suggestions and
please, if anyone could advice me on another great power-speed-melodic punk song
like this one, i would appreciate. Thanks. Las Monjas !,,!_ 
===============================================================================
Comments