Hi Standard - California Dreaming Chords & Tabs

 

Hi Standard Chords & Tabs

Version: 1 Type: Tab 1 rating
1 star 2 stars 3 stars 4 stars 5 stars
comments

California Dreaming Tab

HI standard = California dreaming

Tabbed by- Ali Johnson

E|---------------------------------------------------------------------------------------------------
B|---------------------------------------------------------------------------------------------------
G|-------------7-----------------5------------------3-----------------------5----------------------X2
D|--------7-------7--------5---------5---------3--------3-----------5----------5-----------------
A|----5----------------3-------------------1--------------------3----------------------------------
E|---------------------------------------------------------------------------------------------------
[ Tab from: http://www.guitartabs.cc/tabs/h/hi_standard/california_dreaming_tab.html ]
E|----------------------------------------------------------------------------------------------------
B|----------------------------2-----------------------------------2----------------------------------
G|--------------------2-----------2-----------------------2-----------2-----------------------------
D|--------------2----------------------2------------2----------------------2------------------------
A|-------0-----------------------------------0------------------------------------------------------- Repeat as necessary 
E|----------------------------------------------------------------------------------------------------
                   FAST
E|-----------------------------------------------------------------------------------------------------
B|-----------------------------------------------------------------------------------------------------
G|-------7-7-7-7----5-5-5-5---3-3-3-3---5-5-5-5----2-2-2-2------------------------------------
D|-------7-7-7-7----5-5-5-5---3-3-3-3---5-5-5-5----2-2-2-2---------------------------------
A|-------5-5-5-5----3-3-3-3---1-1-1-1---3-3-3-3----0-0-0-0-----------------------------------	
E|---------------------------------------------------------------
Comments