Hi-5 - Shining Sun Chords & Tabs

 

Shining Sun Chords & Tabs

Hi-5 Chords & Tabs

Version: 1 Type: Chords

Shining Sun Chords

   
Shining Sun

Capo: 3

    G  C  Dm Em F  D
E|--3--0--1--0--1--3--|
B|--3--1--3--0--1--2--|
G|--0--0--2--0--2--3--|
D|--0--2--0--2--3--0--|
A|--2--3-----2--3-----|
E|--3--------0--1-----|

Intro
E|--------------3--|
B|-----------------|
G|-----------------|
D|--------0--------|
A|-----2-----2-----|
E|--3--------------|

    C      Dm     Em     Dm
The sun is rising, it's a new day
    C      Dm     Em     Dm
The sun is rising, it's a new day
C       Dm    Em        Dm
Shining as we laugh and play
C       Dm    Em        Dm
Shining as we laugh and play
D
Warm and bright for everyone
F
Shiny, shiny sun
D
Warm and bright for everyone
F             G
Shiny, shiny, shiny, shiny sun

C Dm Em Dm C Dm Em Dm
[ Tab from: http://www.guitartabs.cc/tabs/h/hi-5/shining_sun_crd.html ]
    C      Dm      Em     Dm
The sun is sinking in the sky
    C      Dm      Em     Dm
The sun is sinking in the sky
C       Dm       Em      Dm
Getting ready to say goodnight
C       Dm       Em      Dm
Getting ready to say goodnight
D
Just the same as everyone
F
Goodnight shiny sun
D
Just the same as everyone
F                G            C
Goodnight shiny, shiny, shiny sun

The sun is rising, it's a new day
The sun is sinking in the sky
E|--------------------------------------|
B|--------------------------------------|
G|--------------------------------------|
D|-----------0-----3--2-----------------|
A|-----3--3-----3--------3--0-----[x2]--|
E|--3--------------------------3--------|

Shining as we laugh and play
Getting ready to say goodnight
E|-----------------------------|
B|-----------------------------|
G|-----------------------------|
D|--------0-----3--2-----------|
A|--3--3-----3--------3--[x2]--|
E|-----------------------------|

Warm and bright for everyone
Just the same as everyone
E|-----------------------|
B|-----------------------|
G|-----------------------|
D|--0--0--0-----2--0--0--|
A|-----------3-----------|
E|-----------------------|

Shiny, shiny sun
Goodnight shiny sun
E|-----------------|
B|-----------------|
G|-----------------|
D|--3--3--3--3-----|
A|--------------0--|
E|-----------------|

Warm and bright for everyone
Just the same as everyone
E|-----------------------|
B|-----------------------|
G|-----------------------|
D|--0--0--0-----2--0--0--|
A|-----------3-----------|
E|-----------------------|

Shiny, shiny, shiny, shiny sun
Goodnight shiny, shiny, shiny sun
E|-----------------------------|
B|-----------------------------|
G|-----------------------------|
D|--------------0--0--2--0-----|
A|--3--3--3--3--------------3--|
E|-----------------------------|