Hersh Kristin - Sundrops Chords & Tabs

 

Sundrops Chords & Tabs

Hersh Kristin Chords & Tabs

Version: 1 Type: Tab 0 ratings
1 star 2 stars 3 stars 4 stars 5 stars
comments

Sundrops Tab

   
#----------------------------------PLEASE NOTE---------------------------------#
#This file is the author's own work and represents their interpretation of the #
#song. You may only use this file for private study, scholarship, or research. #
#------------------------------------------------------------------------------##
Date: Mon, 3 Jul 1995 23:20:57 -0400 (EDT)
From: Edmond Hum 
Subject: TAB: "Sundrops" by Kristin Hersh

SUNDROPS

by kristin hersh
from 'hips and makers'
transcribed by edmond hum (rlp@interlog.com)




             Am
 e-----------0-------------------------------------------
 b-----------0-------------------------------------------
 g--------2--2-------------------------------------------
 d------2----2-------------------------------------------
 a----0------0-------------------------------------------
 e-------------------------------------------------------



     [3x] [2x] [4x] [2x] [4x] [2x] [2x] [2x] [2x]
      B    C    C#m  D    D#   E    F    F#m  G
      -----------------------------------------
 e----0----0----0----0----0----0----0----0----0----------
 b----0----0----0----0----0----0----0----0----0----------
 g----4----5----6----7----8----9----10---11---12---------
 d----4----5----6----7----8----9----10---11---12---------
 a----2----3----4----5----6----7----8----9----10---------
 e-------------------------------------------------------



      B    C#m  Am
 e----0----0----0----------------------------------------
 b----0----0----0----------------------------------------
 g----4----6----2----------------------------------------
 d----4----6----2----------------------------------------
 a----2----4----0----------------------------------------
 e-------------------------------------------------------


--- start ---



 [3x]

B C#m Am
B C#m Am

B         C#m          Am
you can't get any more sunshine
B           C#m      Am        
i can't get over how it rains down
   C#m      Am
oh no no no


B             C#m      Am
you can't get any more sunshine
B             C#m      Am     B
you can't get any more broken down
   C#m      Am
oh no no no


G B D Am B   
G B D Am

[ Tab from: http://www.guitartabs.cc/tabs/h/hersh_kristin/sundrops_tab.html ]
       B   C#m        Am
is the car parked downtown
B        C#m       Am
leave it while the sun beats down
       B        C#m      Am
we can walk and walk and walk
B        C#m      Am
walk and walk and walk


B             C#m      Am
you can't let any more skin show
B             C#m      Am          B
you can't let anything in you eyes show
   C#m   Am
no no no


B             C#m      Am
you can't get any more sunshine
B        C#m       Am         B
barefoot while the heat rains down
   C#m      Am
oh no no no


G B D Am B   
G B D Am


       B   C#m        Am
is the car parked downtown
B        C#m       Am
leave it while the sun beats down
       B        C#m      Am
we can walk and walk and walk
B        C#m      Am
walk and walk and walk


 [3x]

B C#m Am
B C#m Am

B C#m Am     < fingerpicking pattern: 5 4 3 1 2 > (numbers denote the string)
B C#m Am Am


        B       C#m      Am B
there's nothing I forgot
  C#m       Am   Am      B                   C#m Am
I left that paper heart    where it belonged
         B         C#m
who it belonged to
             Am B   C#m   Am    Am
i never knew      I never never knew


B     C#m       Am       B
paper burns and my heart melts
C#m    Am      B   Am
when I tear at you


B   C#m   Am   B
sun drops down
C#m Am    B    C#m
sun drops down
Am  B     C#m  Am
sun drops down


B        C#m     Am
down now now now now
B        C#m     Am
down now now now now
B        C#m     Am  Am
down now now now now


B   C#m   Am   B
sun drops down
C#m Am    B    C#m
sun drops down
Am  B     C#m  Am
sun drops down


B        C#m     Am
down now now now now
B        C#m     Am
down now now now now
B        C#m     Am  B C#m
down now now now now



--- end ---


Comments