Heroes Del Silencio - La Chispa Adecuada Chords & Tabs

 

La Chispa Adecuada Chords & Tabs

Heroes Del Silencio Chords & Tabs

Version: 2 Type: Chords 0 ratings
1 star 2 stars 3 stars 4 stars 5 stars
comments

La Chispa Adecuada Chords

   
La chispa adecuada

INTRO
E |----------------------------------------------------------------
B |-------------6----5-----------5h6--5----------------1-1-1-------
S |-------------------5----------------5----------3----------------
D |--------0--0---0---------0--------------------------------------
A |-3--3/5-----------------0-0-------------0-1--1----1---3---1s3---
E |----------------------------------------------------------------

E |---------------------------5------------------------------------ 
B |------------6---5-----------5-------------3------3-------------- 
G |-----------------5-----------5----------------3--3--------------
D |-------0--0---0---------0---------------------------------------
A |-3-3h5----------------0-----------0-1--1----1----1--1s3---------
E |----------------------------------------------------------------                                                           Repeat x3

Dm        Am              Bb 
  Las palabras fueron avispas
         F     C    Dm
y las calles como dunas
                Am           Bb     F   C
cuando aun te espero llegar...
Dm            Am             Bb
  en un ataud   guardo tu tacto y
        F
una corona
C       Dm
 con tu pelo enmarañado
   Am
queriendo encontrar un
       Bb    Dm
arco-iris    infinito

D  F#m7  G   A  D   F#m7  G  A
[ Tab from: http://www.guitartabs.cc/tabs/h/heroes_del_silencio/la_chispa_adecuada_crd_ver_2.html ]
Dm                  Am            Bb
   mis manos que aun  son de hueso
         C               Dm
y tu vientre sabe a pan
            Am          Bb      F      C Dm
la catedral    es tu cuerpo...
Dm                        Bb
   eras verano y mil tormentas yo
        C
el leon
        Dm
que sonrie a las paredes
       Am
que he vuelto a pintar del
Bb          F
mismo color


*ESTRIBILLO*
D            F#m         G
  no se distinguir entre besos y
       A
raices
D            F#m            G
  no se distinguir lo complicado
             A
de lo simple
           D        F#m
y ahora estas en mi lista de
   G                A
promesas a olvidar
       D          F#m
todo arde si le aplicas la chispa
  G             A
adecuada

 Dm       Bb  C  Dm  C  Bb  C
 Dm       Bb  C  Dm  C  Bb  C

Dm               Am            Bb
   el fuego que era a veces propio
       C            Dm
la ceniza siempre ajena
         Am           Bb
blanca esperma resbalando por
     F           C
la espina dorsal
Dm              Am          Bb
   ya somos mas viejos y sinceros,
             C
y que m s da
     Dm
si miramos la "laguna"
     Am                 Bb
como llaman a la eternidad
F
de la ausencia

*ESTRIBILLO*

 (Rock)

Dm             Bb          C
Dm             C  Bb       C
Dm             Bb          C
Dm             C  Bb       C  Dm
Comments