Heroes Del Silecio - La Chispa Adecuada Chords & Tabs

 

La Chispa Adecuada Chords & Tabs

Heroes Del Silecio Chords & Tabs

Version: 1 Type: Tab 0 ratings
1 star 2 stars 3 stars 4 stars 5 stars
comments

La Chispa Adecuada Tab


---------------------------------------------------------------------------
---------------------------------------------------------------------------
-------------10---9--------------910-9---------------------12--12----------    
-----------0---0----10-----7---7-------10-7---8---8---10---12--------------
-----------------------------0------------------8---8------10--------------
8-8-10---10----------------------------------------------------------------



---------------------------------------------------------------------------
----------------------------------10---------------------------------------
-------------10---9------------------9----------------------10---12--------
-----------0----0---10-----7---7--------10-7---8---8---10---10-------------
-----------------------------0-------------------8---8------8--------------
8-8-10--10-----------------------------------------------------------------


----------------------------------------------------------------------------------
----------------------------------------------------------------------------------
10-9------------------10----9------------910--9------------------------12---12----
-----10--7h0----0--0------0---10--7---7---------10--7---8---8---10-----12---------
------------------------------------0---------------------8---8--------10---------
----------------------------------------------------------------------------------



-------------2--2--0--2--5---5-----3H5H3--2H3H2--0H2H0-----------3-5--2-3--3------------
3--3--2--3-3---------------------------------------------3H5H3---------------1--1S3--3--
----------------------------------------------------------------------------------------
----------------------------------------------------------------------------------------
----------------------------------------------------------------------------------------
----------------------------------------------------------------------------------------






---------------------------------------------------------------------------
---------------------------------------------------------------------------
-------------10---9--------------910-9---------------------12--12----------    
-----------0---0----10-----7---7-------10-7---8---8---10---12--------------
-----------------------------0------------------8---8------10--------------
8-8-10---10----------------------------------------------------------------



---------------------------------------------------------------------------
----------------------------------10---------------------------------------
-------------10---9------------------9----------------------10---12--------
-----------0----0---10-----7---7--------10-7---8---8---10---10-------------
-----------------------------0-------------------8---8------8--------------
8-8-10--10-----------------------------------------------------------------

[ Tab from: http://www.guitartabs.cc/tabs/h/heroes_del_silecio/la_chispa_adecuada_tab.html ]
----------------------------------------------------------------------------------
----------------------------------------------------------------------------------
10-9------------------10----9------------910--9------------------------12---12----
-----10--7h0----0--0------0---10--7---7---------10--7---8---8---10-----12---------
------------------------------------0---------------------8---8--------10---------
----------------------------------------------------------------------------------



-------------2--2--0--2--5---5-----3H5H3--2H3H2--0H2H0-----------3-5--2-3--3------------
3--3--2--3-3---------------------------------------------3H5H3---------------1--1S3--3--
----------------------------------------------------------------------------------------
----------------------------------------------------------------------------------------
----------------------------------------------------------------------------------------
----------------------------------------------------------------------------------------      x2






1--1--0--1--1------1--1----1--1-1--1----3--3---3-3----1--1--1-1-----0--0--0-0---1--1--1-1-----3--3--3-3---1--1--1-1----------
3--3--3--3--3------3--3----1--1-1--1----3--3---3-3----3--3--3-3-----1--1--1-1---1--1--1-1-----3--3--3-3---3--3--3-3----------
2--2--2--2--2------2--2----1--1-1--1----3--3---3-3----2--2--2-2-----2--2--2-2---1--1--1-1-----3--3--3-3---2--2--2-2----------
0--0--0--0--0------0--0----3--3-3--3----5--5---5-5----0--0--0-0-----2--2--2-2---3--3--3-3-----5--5--5-5---0--0--0-0----------
0--0--0--0--0------0--0----3--3-3--3----5--5---5-5----0--0--0-0-----2--2--2-2---3--3--3-3-----5--5--5-5---0--0--0-0----------
---------------------------1--1-1--1----3--3---3-3------------------0--0--0-0---1--1--1-1-----3--3--3-3----------------------



--1--1--1-1----1--1--1-1----3--3--3-3---1--1--1-1---0--0--0-0----1--1--1-1---3--3--3-3------
--3--3--3-3----1--1--1-1----3--3--3-3---3--3--3-3---1--1--1-1----1--1--1-1---3--3--3-3------
--2--2--2-2----1--1--1-1----3--3--3-3---2--2--2-2---2--2--2-2----1--1--1-1---3--3--3-3------
--0--0--0-0----3--3--3-3----5--5--5-5---0--0--0-0---2--2--2-2----3--3--3-3---5--5--5-5------
--0--0--0-0----3--3--3-3----5--5--5-5---0--0--0-0---0--0--0-0----3--3--3-3---5--5--5-5------
---------------1--1--1-1----3--3--3-3---------------0--0--0-0----1--1--1-1---3--3--3-3------



IN DISTORCION GUITAR



-------------------------------------------------------------------1-0-------------------------------------------------------
-----------------------------------------------------------------------1----------------------------------------------------
--------------------------------------------------------------------------2-------------------------------------------------
5--5-5-5---5--5-5-5---8--8-8--8-8---10--10--10--10---X3----------0----------0---------------------------------------------------------------------
5--5-5-5---5--5-5-5---8--8-8--8-8---10--10--10--10----------------------------------------------------------------------------------------------
7--7-7-7---7--7-7-7---6--6-6--6-6---8---8---8---8--------------------------------------------------------------------------------------------
Comments