Hermetica - Olvidalo Y Volvera Por Mas Chords & Tabs

 

Olvidalo Y Volvera Por Mas Chords & Tabs

Hermetica Chords & Tabs

Version: 1 Type: Tab 0 ratings
1 star 2 stars 3 stars 4 stars 5 stars
comments

Olvidalo Y Volvera Por Mas Tab

Hermética - "Olvidalo y volvera por más"

Es solamente la intro., lo demas todavia no lo puedo ahcer porque
tengo un odio de mierda, y me lleva tiempo...
Es bastante simple --el tab-- , pero suena muy bien de todas maneras.
[ Tab from: http://www.guitartabs.cc/tabs/h/hermetica/olvidalo_y_volvera_por_mas_tab.html ]
e|----------------0-----------|    
B|-8----7----7------7---------| 
G|----0---------0-------------|
D|----------------------------|
A|-7---------5----------------|
E|----------------------------|

Se repite 3 veces, y despues sigue asi

e|----------0-----------------|    
B|--3-3-5-----5---------------| 
G|---------0------------------|
D|----------------------------|
A|--2-2-3---------------------|
E|----------------------------|

Y vuelve a empezar...
Despues vienen todas las notas en 5ta.
Comments