Hermans Hermits - Kansas City Loving Chords & Tabs

 

Kansas City Loving Chords & Tabs

Hermans Hermits Chords & Tabs

Version: 1 Type: Bass Tab

Kansas City Loving Bass Tab

G------------0h1-------------------------------|
D-------0h3------0h3---------------------------|
A-0h1------------------------------------------|
E----------------------------------------------|
[ Tab from: http://www.guitartabs.cc/tabs/h/hermans_hermits/kansas_city_loving_btab.html ]
G----------------------------------------------|
D----------0h1---------------------------------|
A-----0h3------0h3-----------------------------|
E-0h1------------------------------------------|
Keep alternating throughout the song

Outro:
G-1-0------------------------------------------|
D-----3-0--------------------------------------|
A----------------------------------------------|
E----------------------------------------------|