Herman Brood - I Love You Like I Love Myself Chords & Tabs

 

I Love You Like I Love Myself Chords & Tabs

Herman Brood Chords & Tabs

Version: 1 Type: Tab 0 ratings
1 star 2 stars 3 stars 4 stars 5 stars
comments

I Love You Like I Love Myself Tab

   
Tablature for Herman Brood's I love you like I love myself






#----------------------------------PLEASE NOTE---------------------------------#
#This file is the author's own work and represents their interpretation of the #
#song. You may only use this file for private study, scholarship, or research. #
#------------------------------------------------------------------------------#

I LOVE YOU LIKE I LOVE MYSELFAs recorded by Herman BroodTranscribed by Reneke@lycos.com
G5/D
x x x x 3 3

C5
x x x x 1 3

G/B
x x x x 0 3

D/A
x x x 2 3 2



G/D
x x 0 0 0 x




Gtr I (E A D G B E) - 'Untitled'

  Faster Q=160
  G        C    G    D        C  G D
 4/4
  Intro, verse, solo:
|-3--------3----3----2--------3----2----|
|-3--------1----0----3--------1--0-3----|
|--------------------2-----------0-2----|
|--------------------------------0------|
|---------------------------------------|
|---------------------------------------|

[ Tab from: http://www.guitartabs.cc/tabs/h/herman_brood/i_love_you_like_i_love_myself_tab.html ]
  Chorus:
  C                 G             D               C
|-------------------------------------------------------------------|
|-------------------------------------------------------------------|
|-5-5-5-5-5-5-5-5-----------------7-7-7-7-7-7-7-7---5-----5-----5---|
|-5-3-3-3-3-3-3-3-5-5-5-5-5-5-5-5-7-7-7-7-7-7-7-7-------------------|
|-3-3-3-3-3-3-3-3-5-5-5-5-5-5-5-5-5-5-5-5-5-5-5-5-3---3-3---3-3---3-|
|-----------------3-3-3-3-3-3-3-3-----------------------------------|


  End of chorus (play 3 times after second verse)
  C    Am
|-----------|
|------1----|
|-5----2----|
|-5----2----|
|-3---------|
|-----------|


  Bridge before solo:
  C                                 F
|---------0---------------0---------------1---1--------|
|-------1---1-----------1---1-----------1--------------|
|----0-----------0----0-------0-------2-----2----------|
|------------------------------------------------------|
|-3----------------3-----------------------------------|
|-----------------------------------1------------------|



  C                                  F
|---------0--------------0----------------------------|
|-------1---1----------1----1-------------------------|
|----0---------------0--------0-----------------------|
|------------------------------------3-3-3-3-3-3-3-3--|
|-3---------------3-------------1----3-3-3-3-3-3-3-3--|
|------------------------------------1-1-1-1-1-1-1-1--|





Comments