Herbie Hancock - Wiggle-waggle Chords & Tabs

 

Wiggle-waggle Chords & Tabs

Herbie Hancock Chords & Tabs

Version: 1 Type: Bass Tab 0 ratings
1 star 2 stars 3 stars 4 stars 5 stars
comments

Wiggle-waggle Bass Tab

Vers 1
G-----1-3-1-3-1--|-----1-3---|-----1-3-1-3-1--|-----1-3---|
D---3-----------3|---3-------|---3-----------3|---3-------|
A-1--------------|-1---------|-1--------------|-1---------|
E----------------|-----------|----------------|-----------|
[ Tab from: http://www.guitartabs.cc/tabs/h/herbie_hancock/wiggle_waggle_btab.html ]
Vers 2
G-----6-8-6-8-6--|-----6-8---|-----4-6-4-6-4--|-----1-3---|
D---8-----------8|---8-------|---6-----------6|---3-------|
A-6--------------|-6---------|-4--------------|-1---------|
E----------------|-----------|----------------|-----------|

Vers 1 guitar only

Vers 1
Vers 2    x12

Brake

Vers 1 
Vers 2    x8
Comments