Herbie Hancock - Chameleon Chords & Tabs

 

Chameleon Chords & Tabs

Herbie Hancock Chords & Tabs

Version: 1 Type: Tab 0 ratings
1 star 2 stars 3 stars 4 stars 5 stars
comments

Chameleon Tab

----------------------------------
----------------------------------
-------------------------3-6------
-----------6-8--------------------   repeat for awhile
----------------3-4-5-6-----------
-3-4-5-6--------------------------

[ Tab from: http://www.guitartabs.cc/tabs/h/herbie_hancock/chameleon_tab.html ]
-------------------------------------------
-------------------------------------------
---------------6h---------------------6--8-  repeat for awhile
-8-8--6-6--8-8-----8-6-8--8-6-6-8----------
-----------------------------8-------------
-------------------------------------------


-9/11-9--------------------------------
--------11-9-9-x-9-9-11-9-9-9-9-11-----
---------------------------------------
---------------------------------------  
---------------------------------------
---------------------------------------


the song just consists of these parts being played over and over again

Comments