Herbie Hancock - Chameleon Chords & Tabs

 

Chameleon Chords & Tabs

Herbie Hancock Chords & Tabs

Version: 3 Type: Bass Tab 0 ratings
1 star 2 stars 3 stars 4 stars 5 stars
comments

Chameleon Bass Tab

   
Artist: Herbie Hancock
Song  : Chameleon
Album : Head Hunters
Tuning: GDAE (standerd)
Timing: 4/4
Tabbed: Simon Skipper

This is all 100% right

This is a cool funky song


MAIN RIFF 
              .          . .
G|----------.-3----------3-6--|
D|----------6-----------------|
A|---------------3-4-5-6------|
E|--3-4-5-6-------------------|

If you get bored here are the saxaphone parts too
[ Tab from: http://www.guitartabs.cc/tabs/h/herbie_hancock/chameleon_btab_ver_3.html ]
G|--..-..-..-6~---------------6~~/8---|
D|--88-66-88---8----86-6~-8-----------|
A|--------------------8---------------|
E|------------------------------------|

G|---8/11-8--8-6--6h8-6--------------------6~~/8--|
D|---------------------8---------86-6~-8----------|
A|----------------------8^---------8--------------|
E|-----------------------9~-6---------------------|


Any Probs??
E-Mail
Play_field@hotmail.com
Comments