Henema - Pute Chords & Tabs

 

Pute Chords & Tabs

Henema Chords & Tabs

Version: 1 Type: Tab 0 ratings
1 star 2 stars 3 stars 4 stars 5 stars
comments

Pute Tab

Opening
E|--------------------------------------------|
B|--------------------------------------------|
G|--------------------------------------------|
D|--------------------------------------------|
A|---7777-777-77777777--7777-777-77777777-----|
E|---5555-555-55555555--5555-555-55555555-----|


Main Riff
E|--------------------------------------------|
B|--------------------------------------------|
G|------666-----------------------------------|
D|--777-666-666-77-66-77----------------------|
A|--777-444-666-77-66-77----------------------|
E|--555-----444-55-44-55----------------------|

Verse
[ Tab from: http://www.guitartabs.cc/tabs/h/henema/pute_tab.html ]
E|--------------------------------------------|
B|--------------------------------------------|
G|-------------------6666666------------------|
D|-7777777777777777--6666666---4444-6666------|
A|-7777777777777777--4444444---4444-6666------|
E|-5555555555555555----------0-2222-4444------|


Chorus

E|--------------------------------------------|
B|--------------------------------------------|
G|-55555555-44444444--------------------------|
D|-55555555-44444444-77777777-33333333--------|
A|-33333333-22222222-77777777-33333333--------|
E|-------------------55555555-11111111--------|


Solo (it's really weird with some harmonics in the back. See if you can get it.)

E|--------------|
B|--------------|
G|--------------|
D|--------------|
A|--------------|
E|----5b--------|
     (just bend this note a lot. Try to match it with
Comments