Hendrix Jimi - Wind Cries Mary Chords & Tabs

 

Wind Cries Mary Chords & Tabs

Hendrix Jimi Chords & Tabs

Version: 1 Type: Tab 2 ratings
1 star 2 stars 3 stars 4 stars 5 stars
comments

Wind Cries Mary Tab

   
THE WIND CRIES MARY
As recorded by The Jimi Hendrix Experience
(From the 1967 Album ARE YOU EXPERIENCED ?)

Gtr I (E A D G B E) - 'Jimi clean electric'
Gtr II (E A D G B E) - 'Jimi dist electric'

Intro
  Q=70
 4/4
  Gtr I
  E Q   E  +H       A  E A  Q   A  E  +H
|-----------------|--------------------------|
|-----------------|--------------------------|
|-8-9--10-(10)----|----8----9-----10-(10)----|
|-8-9--10-(10)----|----8----9-----10-(10)----|
|-6-7---8--(8)----|-8h10-9h11--10h12-(12)----|
|-6-7---8--(8)----|--------------------------|


                                        |3-|
  E Q   E  +Q   Q    A  E A  Q   A  E  +E  S  A  S  S  S  S  E
|------------------|--------------------------------------------||
|------------------|--------------------------------------------||
|------------------|----8----9-----10-(10)----------------------||
|-8-9--10-(10)-----|----8----9-----10-(10)---------10-12-10-----||
|-6-7---8--(8)-----|-8h10-9h11--10h12-(12)-8-10s12----------12\-||
|-6-7---8--(8)-----|--------------------------------------------||


 Verse 1
  Q=78
                             |3-|                                |3|
  Q   E E Q  E E   E. S A E  E  S A E  E  A E  E    Q  E S S A E E S A E E
|-----8------6---|--------------------------------|-------------------------|
|-----8------6---|------------------1-------1-(1)-|----5--------------------|
|-----9------7---|----2-0h2-------0h2-(0)-0h2-(2)-|----5-----------3--------|
|----10------8---|----3---3-----3---3-------3-(3)-|----5-------3-3---3h5-3--|
|----------------|-----------------------------x--|-3----x-3-3h5------------|
|-8-----7-6------|----------(1)----------------x--|-------------------------|


                                                     |3|   |3|     |3|
  Q  E S S A E Q  A S S   E E E E E. S E E   E E A E E S E E S A E E S
|------------1-1--------|------------------|---------------------------|
|----------1h3-1------1-|---1----------x---|-------1-------------1-----|
|----0------------0h2---|-0---0------3-x---|---2-0h2-----------0h2---2-|
|----3------------------|-2---2------3-x---|---3---3---------3---3---3-|
|--------3--------------|-3-----2-1--------|-----------3---------------|
|-1----1----------------|------------------|-1-------1---1-1-------1---|


  S S S S S S S S  S S S S S S S S
|----------------------------------|
|-----3-3-5p3---3----6-6-6-8-6-x-x-|
|-4-4-4-4-4-----4----7-7-7-7-7-x-x-|
|-5-5-5-5-5---5------8-8-8-8-8-x-x-|
|----------------------------------|
|-----------------/6---------------|


  E Q   E  +Q.   E   E S S S S S S S S S S S S S S
|------------------|-------0-----------------------|
|------------------|-3-3-3-0-3-------6---6-8p6-6-x-|
|-8-9--10-(10)-----|-4-4-4-0-4---4-7-----7-7---7-x-|
|-8-9--10-(10)-----|-5-5-5---5-5---8-----8-6---8-x-|
|-6-7---8--(8)-----|-3-------------7---------------|
|-6-7---8--(8)-----|-5-------------6---6-----------|


                                          |-3-|     |3-|  |3-|
  E E E  E  +Q   E E   A  E A  Q   A  E  +E   S  A  E  S  E  S  E
|--------------------|---------------------------------------------||
|--------------------|---------------------------------------------||
|-8-9---10-(10)--x---|----8----9-----10-(10)----------------10-----||
|-8-9---10-(10)--x---|----8----9-----10-(10)-10----10-10-12-10-----||
|-6-7----8--(8)--x---|-8h10-9h11--10h12-(12)----10h12----------12\-||
|-6-7----8--(8)------|---------------------------------------------||


 Verse 2
       |3|        |3-|
  Q  E E S S  S  +E  S E E
|---------------------------|
|----5----------------------|
|----5---5-----------3-3----|
|----5-----3-(3)-(3)---3----|
|-3----3---3h=5--(5)-----5\-|
|---------------------------|


            |3|                     |3|
  Q  A T S. E S A E A Q  E    E E E E S S  E  S S S A E
|---------------------1-----|---------------------------|
|------1----------1---1-----|-----5---------------------|
|----0h2p0------0h2-0h2-----|-----5---5-------3---3-----|
|------3------3---3---------|---5---5---3-(3)-3-3-----3-|
|-------------3-------------|-3-----3---3h=5--------3h5-|
|-1---------1------------3/-|---------------------------|


            |3|   |3|      |3-|
  E S S A E E S A E S A E +E  S E
|------------------------------------|
|---------1-------1-----1-(1)--------|
|-----2-0h2-----0h2p0-0h2-(2)-2------|
|---3-----3-------3-----3-(3)-3------|
|-------------3----------------------|
|-1---------1-------------------1/---|


               |3|                     |3| |3| |3|
   E. S E E Q  E S E   E  E  S S S S E E S E S E S
|--8------9-8--8-----|-----------------------------|
|--8--8---7-6--6-6-6-|---(1)---1-------------------|
|--9--9---8-7--7-7-7-|-2-(2)---2-----------2-2---2-|
|-10------9-8--8-8-8-|-3-------3---3-----3-3-3---3-|
|--x-----------------|-3---------3-3-3-3---3---3---|
|--8-----------------|-1-----1-------1-1---1---1---|


   S S S S S S S S  S S S S S S S S
|------------------------------------|
|-/3-3-3-3-5-3---3--------6-8p6-6-x--|
|-/4-4-4-4-4-----4--------7-7---7-x--|
|-/5-5-5-5-5-----5-/8-8-8-8-6---8-x--|
|-/3----------------x-x-x------------|
|-/3-----------3---/6-6-6------------|


  E Q   E  +Q   Q    E. S a E. S  E S S S S S S
|------------------|----------------------------|
|------------------|------5p3---------6-8p6-----|
|-8-9--10-(10)-----|--------4----/7-7---7-----0-|
|-8-9--10-(10)-----|-5------5----/8-8---8---8---|
|-6-7---8--(8)-----|-x------------x-------------|
|-6-7---8--(8)-----|-3--3------3-/6-------------|


  E Q   E  +H       A  E A  Q   A  E  +H
|-----------------|--------------------------||
|-----------------|--------------------------||
|-8-9--10-(10)----|----8----9-----10-(10)----||
|-8-9--10-(10)----|----8----9-----10-(10)----||
|-6-7---8--(8)----|-8h10-9h11--10h12-(12)----||
|-6-7---8--(8)----|--------------------------||


 Guitar Solo
  Gtr II
    Q        A  E      E        E  S  S   S   S    E
|--------------13\-----------------------------------|
|-----------13h15\----------------13-13-----------13-|
|---------------------------------12-14--12-------12-|
|--------------------------------------------15------|
|----------------------------------------------------|
|----------------------------------------------------|
|
| Gtr I
|                                         |--3--|
|   E  S  S     S   S  S  S  a  E  E     +E     S  E
|----------------------------------------------------|
|----------------------------------------------------|
|-/10-10-10----10--10-------10s=8--8-----(8)---------|
|-/10--------------------10-10s=8--8-----(8)----x--8-|
|-/12-----------------12----12s10-10----(10)----x-10-|
|----------------------------------------------------|


                             ~~~~~~~~~~~~
   a  S  S  E    E  S  S  a  Q      +S   S E      Q        a  E      E       E  S  S  S  S  E
|-----------------------------------------------|------------13\-------------------------------|
|----13-----------------------------------------|---------13h15\---------------13-13-------13--|
|-12h14p12--------------------------------------|------------------------------12-14-12----12--|
|----------15------15-17-15h17-----(17)p15------|---------------------------------------15-----|
|---------------17------------------------------|----------------------------------------------|
|-----------------------------------------------|----------------------------------------------|
|
|     PM---|                 PM--|
|     E     E A  E  E        E S S   S   S S  S   E  S  S     S   S  S  S A  E  E     E     E
|-----------------------------------------------|----------------------------------------------|
|-----------------------------------------------|----------------------------------------------|
|-----------------------------------------------|---10-10----10--10-10-10----8--8-----8--------|
|-----------------------------------------------|---10-10----10--10-10-10----8--8-----8--------|
|-------------------8----------------------8----|-8--8--8-----8---8--8--8-8h10-10----10--------|
|-----6-----6-8s10-----------4-4-4---8s=10---10-|------------------------------------------10--|


               ~~               ~~
    E  S  S    Q       A  E  A  Q         E
|----------------------------------------------|
|----------------------------------------------|
|----------------------------------------------|
|-----15h17---15------15h17--------------15----|
|-/17-----------------------15h17--------------|
|----------------------------------------------|
|
|   PM---|                PM------|
|   E  S  S a  S S  E     E     S S S  S  S  S
|----------------------------------------------|
|----------------------------------------------|
|----------------------------------------------|
|----------------------------------------------|
|----------------8------------------------8----|
|--/6--6--6-8s10---10-----4-----4-4-8s10----10-|


                                                              ~~~~~~~~~~~~
  Q        a  E      E    E     S  S  S  S  E     E  S  S  S  E.      +Q      Q
|------------13\------------------------------|-------------------------------------|
|---------13h15\---------------13-13-------13-|-------------------------------------|
|------------------------------12-14-12----12-|-------------------------------------|
|---------------------------------------15----|-----15h17---------------------------|
|---------------------------------------------|-/17-------15-17------(17)-----------|
|---------------------------------------------|-------------------------------------|
|
| E  S  S     S   S  S  S S  S  S  S  S  S  E     E  E     S  S  S S   E  S S E E
|---------------------------------------------|-------------------------------------|
|---------------------------------------------|-------------------------------------|
|---10-10----10--10----10-------8--8--8--8--8-|-------------------------------------|
|---10-10----10--10-10-10-------8--8--8--8--8-|-------------------------------------|
|-8-----------8---8-------8h10-10-10-10-10-10-|------------------8-x------------6---|
|---------------------------------------------|--/6--6-----8-10--------4--4-4S8-----|

[ Tab from: http://www.guitartabs.cc/tabs/h/hendrix_jimi/wind_cries_mary_tab.html ]
  E  a  E     S  S   S  S  S  S  a  E    a  Q
|------15----15-------------------------------------|
|---15h17-----------15-15-15-------15------15-------|
|-------------------14-16-14----14h16---14h16-------|
|----------------------------17---------------------|
|---------------------------------------------------|
|---------------------------------------------------|
|
|       |3-|                        |3|
| E     E  S  S  S   E     E        E S     S S S S
|-------------------------------------5-----5-------|
|-3-----3--3--5p=3---3-----3--------3-3-----3-----x-|
|-4-----4--4--4-(4)--4-----4--------4-4-----4-----x-|
|-5----(5)-5--5-(5)--5-----5--------5-5-----5-----x-|
|-3------------------3-----3--------3---------------|
|-3------------------3-----3--------3---------x-3---|


                                                                     ~~
  E a S S E S S S S E a E   E      S  E      S   S  S  S S  S  S     Q      E
|-------6---6-6-----------------|--------------(12)---------9-------------------|
|-----6-6-8-6-6-----------------|----12b14----------9----9----------------------|
|---6h7-7---7-7h8-8-8-8p7-------|---------------------11------11b13--9----------|
|-------------------------------|-----------------------------------------------|
|-------------------------------|-----------------------------------------------|
|-------------------------------|-----------------------------------------------|
|
|                           |3|
| E   S S E E   E   E   S S E S    E       E     E     S S  S  S     S  S E E
|-------6-----------------------|-----------------------------------------------|
|-----6-6-6-6---6---6---6-6-----|-----------------------------------------------|
|-7---7-7-7-7---7---7---7-7-----|---------------10---------10-10----10-10-------|
|-8---8-8-8-8---8---8---8-8-----|---------------11---------11-11----11-11-------|
|-7-------8-8---8---8---8-------|---------------11----------x--x-----x--x-------|
|-6-------6-6---6---6---6---6S8-|-/9-------9-----9-----9-9--9--9-----9--9-9-9\--|


   E  A  E  E  E  S  S  S  S  S  S  E
|-------13-13---------------------------|
|----13h15-13----13-13-13----13----13---|
|----------------12-14-12----12-14-12---|
|-------------------------15------------|
|---------------------------------------|
|---------------------------------------|
|
|  Q        E  E  E     E     E     S S
|---------------------------------------|
|---------------------------------------|
|-10-------------------------------10---|
|-10-------10-10-------10----------10---|
|--8--------8--8--8-----8-----8-----8---|
|-------------------------------------8-|


                                                  Verse 3
                     ~~
   S  S  S  S  E  E  Q            E     A  E
|-----------------------------------------------||
|-----------------------------------------------||
|-------10----10--------------------------------||
|-10h12----12-10--------------------------------||
|----------------13-12--------------------------||
|-------------------------------/15\----3h=5----||
|
|  E     E     E  E  S  S  S  S   S   S    S  S    Q  E S S S S E S S S S
|-----------------------------------------------||---------------------------|
|-----------------------------------------------||----5----------------------|
|-------10----10-10-10-10-10-10--10--10---10-10-||----5----------------------|
|-------10----10----10-10-10-10--10--10---10-10-||-5--5-5-------3-3-3--------|
|--8-----8-----8-----8--8--8--8---8---8----8--8-||-3--3---3-3h5-------3h5\---|
|-----------------------------------------------||---------------------------|


  F
  Gtr I
         |3|          |3-|
  Q  A E E S A E A E +E  S E
|----------------------------|
|------1---------------------|
|----0h2---------------------|
|------3---------------------|
|----------3-----------------|
|-1----------3h5-3h5-(5)-3s1-|


       |3|         |3|
  Q  E E S S  S  E E S A E    Q  E S S A E A E S S E
|---------------------------|------------------------|
|---------------------------|----1---1---1---1---1---|
|----5-5-5-------3-3--------|----2---2-0h2-0h2-2-----|
|----5-5-5-3-(3)-----3------|----3---3---3---3-------|
|-3--3-----3--5--------3h5\-|----------------------3-|
|---------------------------|-1----1-----------------|


   E  S S  S  S  E E S S S S E
|-------8-10--8------6-6-6-6---|
|-----8-8--8--9----6-6-6-6-6---|
|-----9----9--9--9-7-----7-7---|
|----10---10-10-10-8-----------|
|------------------x---------x-|
|-/8---------------6-----------|


  Q  E S S E S S +S  S S S   Q  S S S S  S S S S S S E
|--------------------------|---------------------------|
|----1---1-----1-(1)-1---2-|-3--5-3-3-3-/6-6-6-6-8-6---|
|----2---2---2-2-(2)-2---3-|-3--3-3-3-3-/7-7-7-7-7-7-7-|
|----3---3---3-3-(3)-3---4-|-5--5-5-5-5-/8-8-8-8-8-8-8-|
|----------3---------------|-x-------------------------|
|-1--------1-----------1---|-3-------------------------|


  E E E  E  +Q   E E   E S S S S S S E S S S S E
|--------------------|---------------------------|
|--------------------|---3-3-5-3---------6-8-6---|
|----------------x---|---4-4-4-4---4---7-7-7-7---|
|-8-9---10-(10)--x---|-5-5-5-5-5-5-5---8-8-8-8---|
|-6-7----8--(8)--x---|-3---------x---------------|
|-6-7----8--(8)------|-3---------3---6---------6-|


  E Q   E  +H       A  E A  Q   A  E  +Q    E  E
|-----------------|--------------------------------||
|-----------------|--------------------------------||
|-8-9--10-(10)----|----8---------------------------||
|-8-9--10-(10)----|----8----9-----10-(10)----------||
|-6-7---8--(8)----|-8h10-9h11--10h12-(12)--12\-----||
|-6-7---8--(8)----|----------------------------7\--||


 Chorus
        |3|       |3| |3|
  E E E E S S  S  E S E S  E
|------------------------------|
|------------------------------|
|-----5---5-------3-3----------|
|-----5-5---3-(3)-3---3-3-(3)\-|
|-3-3-3-----3h=5--------3h=5\--|
|------------------------------|


          |3| |3| |3-|                            |3|
  E E A E E S E S E  S  A E E   E E E S S S S S S E S  E
|-----------------------------|----------------------------|
|-------1-----------------1---|-------5-5------------------|
|-----0h2-------2-------0h2---|---5-5-5-5-----3-3----------|
|-------3---3---3---(3)---3---|-5-5-5-5-5-----3---3-3-(3)\-|
|-----------3-----------------|-3---------3s5-------3--5\--|
|-1-1-----1---1---1---------1-|----------------------------|


     |3-|             |3|           |3| |3| |3|                 |3|
  E +E  S A S  S  S S E S E A E E   E S E S E S E Q  E E   Q  E E S E E Q
|---------------------------------|----------------------|-----------------|
|-------1---1-(1)-1-1---------1---|----------------------|----1---1-----1--|
|-------2-0h2p=0--2-2-------0h2---|---5-------5------3---|----2---2-----2--|
|-------3---3-(3)-3-3---3-----3---|-----5-5-5-----3--3---|----3---3-----3--|
|-----------------3-------------3-|-3---3---3---2-1--1---|--------3--------|
|-1-(1)-----------1---1---1-------|----------------------|-1----1---1-1----|


  S S S S S  S  S S E S S S S E
|-------------------------------|
|-3-3-3-3-5p=3----3-6-6-6-8-6---|
|-4-4-4-4-4-(4)---4-7-7-7-7-7---|
|-5-5-5-5-5-(5)-5-5-8-8-8-8-8-8-|
|-x---x---------x---x-----x---x-|
|-3---3---------3---6-----6---6-|


  E E E  E  +Q   E E   E S S S S S S S S S S S S E
|--------------------|------------------------------|
|--------------------|---3-3-5-3-3-3-6-6---6-6-6----|
|-8-9---10-(10)--x---|---4-4-4-4-4-4-7-7---7-7-7----|
|-8-9---10-(10)--x---|-5-5-5-5-5-5-5-8-8-8-8-8-8----|
|-6-7----8--(8)--x---|-x---------x---x---x----------|
|-6-7----8--(8)------|-3---------3---6---6----------|


  E E E  E  +Q   E E   A  E A  Q   A  E  +Q   E E
|--------------------|----------------------------|
|--------------------|----------------------------|
|-8-9---10-(10)--x---|----8----9-----10-(10)--x---|
|-8-9---10-(10)--x---|----8----9-----10-(10)--x---|
|-6-7----8--(8)--x---|-8h10-9h11--10h12-(12)--x---|
|-6-7----8--(8)------|----------------------------|


 Outro - Solo
  Gtr II
  A  E E  A  E  E  +Q   Q        H               E   A  S  S  S   S S  S
|-8s10s8--------------------|--------------------------------------------|
|-8s10s8-10h11-10-(10)------|--------------------------------------------|
|-----------10-10-(10)------|--------------------------------------------|
|--------10h12-10-(10)------|-----------------------10h12-10-------------|
|---------------------------|--------------------------------12--10-8----|
|---------------------------|-----------------------------------------10-|
|
| Gtr I
|    E E     E  E  +Q   E E   A  E A  Q   A  E  +Q            Q
|---------------------------|--------------------------------------------|
|---------------------------|--------------------------------------------|
|----8-9-------10-(10)--x---|----8----9-----10-(10)----------------------|
|----8-9-------10-(10)--x---|----8----9-----10-(10)----------------------|
|----6-7--------8--(8)--x---|-8h10-9h11--10h12-(12)----------12\---------|
|----6-7--------8--(8)------|--------------------------------------------|


  E Q    E  +E  S  S S  S S  S
|-------------------------------|
|-------------------------------|
|-------------------------------|
|-------------------------------|
|--------------------8-10-8-----|
|-6-7----8--(8)-8h10--------10--|
|
| E E E  E  +Q       E    E
|-------------------------------|
|-------------------------------|
|-8-9---10-(10)------x----------|
|-8-9---10-(10)------x----------|
|-6-7----8--(8)------x----------|
|-6-7----8--(8)-----------------|


  A  E A  Q   A  E   E  A  E S  S E   A  E E  A  E  E  +H        W
|--------------------------8-8------|-8h10-8------------------|--------------*|
|-----------------------8h10-8------|-8h10-8-10h11-10-(10)----|--------------*|
|------------------------------10p8-|-----------10-10-(10)----|--------------*|
|-----------------------------------|--------10h12-10-(10)----|--------------*|
|-8h10-9h11--10h12--12--------------|-------------------------|--------------*|
|-----------------------------------|-------------------------|--------------*|
|
|                ~~~~~~~
| A  E A  Q   A  E  +Q       Q           E Q        E  +H        E E Q  H
|-----------------------------------|-------------------------|--------------*|
|-----------------------------------|-------------------------|--------------*|
|----8----9-----10-(10)-------------|----8-9-------10-(10)----|-!x-----------*|
|----8----9-----10-(10)-------------|----8-9-------10-(10)----|-!x-----------*|
|-8h10-9h11--10h12-(12)-------------|----6-7--------8--(8)----|-!x-----------*|
|-----------------------------------|----6-7--------8--(8)----|--------------*|
Comments