Hendrix Jimi - Wild Thing Chords & Tabs

 

Wild Thing Chords & Tabs

Hendrix Jimi Chords & Tabs

Version: 1 Type: Tab 6 ratings
1 star 2 stars 3 stars 4 stars 5 stars
comments

Wild Thing Tab

Tune down your guitar half a step.
Transcribed by:Johannes.Björhag 2001 18/3 11.35

Wild Thing by Jimi hendrix


e-------------|--------------|----------|-----------------------------
B-------------|--------------|----------|-----------------------------
G---2-2-------|--7-7--9-9----|--7-7-----|-----------x5----------------
D---2-2-------|--7-7--9-9----|--7-7-----|-----------------------------
A---0-0-------|--5-5--7-7----|--5-5--0--|-----------------------------
E-------------|--------------|----------|-----------------------------

e--------------|-------------|----------------------------------------
B--------------|-------------|----------------------------------------
G--------------|----x4-------|----------------------------------------
D--5--7--5--7--|-------------|-----/10/2------------------------------
A--5--7--5--7--|-------------|----------------------------------------
E--3--5--3--5--|-------------|----------------------------------------



e-------------|--------------|----------|-----------------------------
B-------------|--------------|----------|-----------------------------
G---2-2-------|--7-7--9-9----|--7-7-----|-----------x2----------------
D---2-2-------|--7-7--9-9----|--7-7-----|-----------------------------
A---0-0-------|--5-5--7-7----|--5-5--0--|-----------------------------
E-------------|--------------|----------|-----------------------------


e---------------|-----------------|---------------|-------------------
B---------------|-----------------|---------------|-------------------
G--7b9----------|-----------------|---------------|-------------------
D---------------|-----------------|---------------|-------------------
A---------------|-----------------|---------------|-------------------
E---------------|-----------------|---------------|-------------------

e-------------|--------------|----------|-----------------------------
B-------------|--------------|----------|-----------------------------
G---2-2-------|--7-7--9-9----|--7-7-----|-----------------------------
D---2-2-------|--7-7--9-9----|--7-7-----|-----------------------------
A---0-0-------|--5-5--7-7----|--5-5--0--|-----------------------------
E-------------|--------------|----------|-----------------------------



e-------------|--------------|--------------------|-------------------
B-------------|--------------|--------------------|-------------------
G---2-2-------|--7-7--9-9----|--7h9p7h9p7h9p7h9p7-|--7-7--------------
D---2-2-------|--7-7--9-9----|--------------------|--7-7--------------
A---0-0-------|--5-5--7-7----|--------------------|--5-5--0-----------
E-------------|--------------|--------------------|-------------------


e-------------|--------------|----------|-----------------------------
B-------------|--------------|----------|-----------------------------
G---2-2-------|--7-7--9-9----|--7-7-----|-----------------------------
D---2-2-------|--7-7--9-9----|--7-7-----|-----------------------------
A---0-0-------|--5-5--7-7----|--5-5--0--|-----------------------------
E-------------|--------------|----------|-----------------------------


e-------------|--------------|---------------------------------------
B-------------|--------------|---------------------------------------
G---2-2-------|--7-7--9-9----|---------------------------------------
D---2-2-------|--7-7--9-9----|---------------------------------------
A---0-0-------|--5-5--7-7----|---------------------------------------
E-------------|--------------|---------------------------------------


Solo: 00:01:32
[ Tab from: http://www.guitartabs.cc/tabs/h/hendrix_jimi/wild_thing_tab.html ]
e----------------|--------------|---------------|-----------------------
B----------------|--------------|---------------|-----------------------
G-9-11-9-11-9-11-|-9-11/13-11-9-|-9/8-9p8-9p8-9-|-8-9/11-9-8-9p8--------
D----------------|--------------|---------------|-----------------------
A----------------|--------------|---------------|-----------------------
E----------------|--------------|---------------|-----------------------
                                      
                                     Flumsy part=
e---------------|-----------------|---------------|---------------------
B---------------|-----------------|---------------|---------------------
G--6h8-6h8-6h8--|--6/4-6----------|---------------|---------------------
D---------------|-----------------|-8b10-8b10-8b10|-8b10-8b10-6---------
A---------------|-----------------|---------------|-------------8-------
E---------------|-----------------|---------------|---------------------

                                                              
e-----------------------------------------------------------------------
B-----------------------------------------------------------------------
G----------------------------8b10---------------------------------------
D-8b10-6---8b10-6---8b10-6--------8b10--6h8p6h8p6h8p6h8p6h8-------------
A-------8---------8--------8--------------------------------------------
E-----------------------------------------------------------------------

e---------------|-----------------|-------------|-----------------------
B---------------|-----------------|-------------|-----------------------
G---------------|-----------------|-------------|-----------------------
D-7-------------|--5--7--5--7-----|--5--7--5--7-|--5--7--5--7-----------
A-7-------------|--5--7--5--7-----|--5--7--5--7-|--5--7--5--7-----------
E-5-------------|--3--5--3--5-----|--3--5--3--5-|--3--5--3--5-----------

e---------------|--------------------------------------------------------
B---------------|--------------------------------------------------------
G---------------|--------------------------------------------------------
D--5--7--5--7---|--------------------------------------------------------
A--5--7--5--7---|--6h8p6h8p6h8p6h8p6h8-----------------------------------
E--3--5--3--5---|--------------------------------------------------------



e-------------|--------------|----------|--------------------------------
B-------------|--------------|----------|--------------------------------
G---2-2-------|--7-7--9-9----|--7-7-----|-----------x10------------------
D---2-2-------|--7-7--9-9----|--7-7-----|--------------------------------
A---0-0-------|--5-5--7-7----|--5-5--0--|--------------------------------
E-------------|--------------|----------|--------------------------------


e-----------------------------------------------------------------------
B-----------------------------------------------------------------------
G---2-------------------------------------------------------------------
D---2-------------------------------------------------------------------
A---0-------------------------------------------------------------------
E-----------------------------------------------------------------------

Wild Thing:Lyrics

Wild thing, you make my heart sing,
you make a heaven,wild thing
one thing I think you now
but I wanna now for shore
come an assssssssssss
you move
wild thing,you make my heart sing
you make a heaven,is that right?
wild thing,
Solo:
wild thing, I think you now what I
wanna now for shore,come an as
a long, long time with you
a wanna say I love you
wild thing, you make my heart sing
you make a heaven babe, you! wild thing
yeah, wild thing yeah! yeah! wild thing
yeah! yeah! wild thing
yeah!   wild thing

That´s it I saw no one had transcribed the solo so I did that!

Please mail me at Johannes_bjorhag@yahoo.com!



Comments