Hendrix Jimi - Voodoo Chile Chords & Tabs

 

Voodoo Chile Chords & Tabs

Hendrix Jimi Chords & Tabs

Version: 4 Type: Tab 2 ratings
1 star 2 stars 3 stars 4 stars 5 stars
comments

Voodoo Chile Tab

   
Jimi Hendrix
Voodoo Child

H-hammer on
P-pull off
B-bend
R-release

Heres the intro
[ Tab from: http://www.guitartabs.cc/tabs/h/hendrix_jimi/voodoo_chile_tab_ver_4.html ]
With Wah:
----------------------------------------------------------------------
-----------------------------------------------------------10b-6-8----
---7H9-7---7-----------9-7---7H9------PlAY 4X THEN PLAY------------9--
---------9---5-5-7-5-------9------------------------------------------
---------------------7------------------------------------------------
---------------------------------------------------------------------


---x---------------3--------
---x---------------3--------
-1-x------------------------
-2-x- 2brP0-2-x-x-----------
-2-x--------2-x-x-----------
-0-x--------0-x-x-----------
Sometimes jimi hits this chord: 
---
---
-7-
-6-
-7-
-0-
And there are also times where he slides or does a hammer on
this is just the basic structure

thats all 4 now
email me at shreddedweatg3@netscape.net
Comments