Hendrix Jimi - Voodoo Child Chords & Tabs

 

Voodoo Child Chords & Tabs

Hendrix Jimi Chords & Tabs

Version: 5 Type: Tab 11 ratings
1 star 2 stars 3 stars 4 stars 5 stars
comments

Voodoo Child Tab

   
atist: jimi hendrix
song: voodoo child(slight return)
Album: experience hendrix: the best of hendrix
Tuning: 1/2 step down (low to high - Eb Ab Db Gb Bb Eb)

Tablature Key –
h = hammer on
p = pull off
s or / = slide up
s or \ = slide down
x = mute strings
(7) = sustain note/ghost note
b = bend note
r = release note
== = hold note

Intro – with wah
|---|-----------------------------|
|---|-----------------------------|
|-x-|-x-x-x-x-x-x-x-x-x-x-x-----x-|
|-x-|-x-x-x-x-x-x-x-x-x-x-x-----x-|
|-x-|-x-x-x-x-x-x-x-x-x-x-x-----x-|
|---|-----------------------------|

|-----------------------------|--------------------------------||
|-----------------------------|--------------------------------||
|-x-x-x-x-x-x-x-x-x-x-x-x---x-|-x-x-x-x-x-x-x-x-x-x-x-x-x-x----||
|-x-x-x-x-x-x-x-x-x-x-x-x---x-|-x-x-x-x-x-x-x-x-x-x-x-x-x-x----||
|-x-x-x-x-x-x-x-x-x-x-x-x---x-|-x-x-x-x-x-x-x-x-x-x-x-x-x-x----||
|-----------------------------|--------------------------------||

|-------------------|---------------------------------------|
|-------------------|---------------------------------------|
|-x-x-x-x-x-x-x-x-x-|-9--(9)-----7--------------------------|
|-x-x-x-x-x-x-x-x-x-|--------7h9---5b7==(7)-5-7p(5)p(0)-----|
|-x-x-x-x-x-x-x-x-x-|-----------------------------------(0)-|
|-------------------|---------------------------------------|

|-----------------------|
|-----------------------|
|-9--7---9s8s7-----x-x--|
|------9-----------x-x--|
|------------------x-x--|
|-----------------------|

|--------------------------------------------------------|
|---------(0)--------------------------------------------|
|-7h9p(0)---------7b8==(8)-------------------------------|
|-------------7h9----------5b6==(6)-5b6==(6)-7p(0)h(7)---|
|--------------------------------------------------------|
|--------------------------------------------------------|

|--------------------------|--------------------------------------------------|
|--------------------------|--------------------------------------------------|
|-9--0-7b8==(8)-9-(9)------|-9--0-----7b8==(8)--------------------------------|
|--------------------------|------7h9----------5b6==(6)-5-7p5-----------------|
|--------------------------|----------------------------------(0)h(5)h(7)p(0)-|
|--------------------------|--------------------------------------------------|

|------------------------|------------------------------------|
|------------------------|------------------------------------|
|-9--7---9-(9)s7-----x-x-|-9--0-----7b8==(8)------------------|
|------9-------------x-x-|------7h9----------5b6==(6)-5-7-----|
|--------------------x-x-|--------------------------------5h7-|
|------------------------|------------------------------------|

|-------------------------------------------|
|------------10b12==(12)-(12)-(12)r(10)-8---|
|-9--(9)-7-9------------------------------9-|
|-------------------------------------------|
|-------------------------------------------|
|-------------------------------------------|


Pre-Verse -
|--------------------0---------------|-----------------------------|
|-0-0----------------0---------------|-0-------------------0-------|
|-1---2b4==(4)r(2)p0-x---------------|-x--2-2b4==(4)r(2)p0-x-------|
|-2------------------2-----------0h2-|-2-------------------2-------|
|-x----------------------------------|-x---------------------------|
|-0--------------------0-0-3b3.5-----|-0----------------------0--0-|

|------------------------------------------|
|------------------------------------------|
|-14b16--------14pb16r(14)-12-(12)--x------|
|-------14pb15----------------------x------|
|------------------------------------------|
|-------------------------------------17\--|

|---------------------------------------|
|----(0)--------------------------------|
|--------2b4==(4)r(2)p0-------2b4==(4)--|
|-----------------------2-(2)-----------|
|---------------------------------------|
|-0------------------------0------------|

|--------------------------------|-----------------------0-0--|
|--------------------------------|-------------0-(0)---0-0-0--|
|-(4)--(4)r===(2)-2b4==(4)r(2)p0-|-------------x-----1--------|
|------------------------------0-|-------------2-(2)-2--------|
|--------------------------------|-------------------2--------|
|--------------------------------|---0-0-3b3.5-------0--------|
toggle pickup switch

|-------12-------12------------------------------------------------------------
|-15b17----15b17----------15p12------------------------------15----------------
|-------------------14b16-------14b16r(14)p12----12h14b16-14----14b16-14p12----
|---------------------------------------------14----------------------------14-
|------------------------------------------------------------------------------
|------------------------------------------------------------------------------

|----------------------------------|
|-------------------------x-x------|
|-14b16-14-14b16-12-(12)-12-x------|
|----------------------------------|
|----------------------------------|
|-----------------------------16s0-|

|-0----------------------0---------|-------------------3-3-------------|
|-0----------0-(0)-----------------|-0---0-------0-----3-3-------------|
|-1----------x-----1-----2b4r(2)p0-|-x---0-------x---------------------|
|-2----------2-(2)-2---------------|-2-x-------0h2---------------------|
|-x---2---------------0------------|-x-x-------------------------------|
|-0---0---3---------0--------------|-0-x---3p0-----0-0-------0-3b4-(3)-|

|-------------------------0---------------|
|-----------------------3-0---------------|
|-----------------------2---2b4r(2)p0-----|
|-0h2-------------0h2-----------------h2--|
|-----------------------------------------|
|-----0-0-3b3.5p0-----0-------------------|

                                   Verse 1 – “I stand up next to a “
|--------------------------------||-------------------------------|
|--------------------------------||-------------------------------|
|-1----------------0h1---1-------||-------------------------------|
|-2-2--------------0h2---2-0-----||-----5b5.5-----------x---------|
|-x------------------------------||-5-7-------7---5-7p5-x---------|
|-0---0-3b5==(3)p0-----0-----5-7-||-------------7---------0-3b3.5-|

|------------------------------------|
|-0---3p0-3-(3)----------------------|
|-1---------------2b4r(2)-2b4r(2)p0--|
|-2-2--------------------------------|
|-x----------------------------------|
|-0-----0-------0--------------------|

|---------------0-0-0---------|-------------------0-----------|
|---------------0-0-0--15b17--|-----------0---0-0-------------|
|---------------1-------------|---1-------x-2-1-1-2b4r(2)p0-1-|
|-2-------------2-------------|---2-------2-2-2-2---------0-2-|
|-----------------------------|-------------0-----------------|
|---0-0-3b3.5p0---------------|-0---0-3p0---------------------|

|---------------0-0---------------|
|-0-0-----------0-x---------------|
|-0-0-------------2b4r(2)p=0--2---|
|-2-2-----0h2---------------------|
|---------------------------------|
|-----3p0-----0-------------------|

|------------------------|-5b7==(7)r(5)p3---(5)-3h5p3-3h5p3-5-3-0-----------|
|-------------------3--5-|----------------5---------------------------------|
|---1-1------------(3)---|--------------------------------------2b4r(2)-0---|
|---2-2-----2-(2)--------|----------------------------------------------0-2-|
|---2--------------------|--------------------------------------------------|
|-0-0---3b4----0---------|--------------------------------------------------|

|-----0------------------------------------------|
|---0-0-3-0-0-3b5==(5)r(3)p0-0h3p0-3p0-----------|
|--------------------------------------2b4==(4)--|
|---2--------------------------------------------|
|------------------------------------------------|
|-0----------------------------------------------|

|----------------------------------------|
|---------------------------0------------|
|-(4)r(2)p0---------------1-1-1s4-4------|
|-----------------0h2-(2)-2---x-x--------|
|-------------------------2---2s5---5\---|
|-----------0-3p0------0---------------0-|

|---------------0----|-------------------------|
|---0-----------0----|-------------------------|
|---1-----1-(1)------|-4-4-4-4-4-4-4-4-4-4-4-4-|
|---2-----2-(2)------|-x-x-x-x-x-x-x-x-x-x-x-x-|
|------------2-------|-5-5-5-5-5-5-5-5-5-5-5-5-|
|-0---3p0----0-------|-------------------------|

|-----------------------------|---------------0-0-0---------(0)---|
|-----------------------------|---------------0-0-0---------(0)---|
|-2-2-2-2-2-2-2-2-2-2-2-2-2-x-|---1---------1-------2b4r(2)--0----|
|-x-x-x-x-x-x-x-x-x-x-x-x-x-x-|---2---------2-------------------2-|
|-4-4-4-4-4-4-4-4-4-4-4-4-4-x-|-----------------------------------|
|-----------------------------|-0---3b3.5p0-----------------------|

|---0-------------------------||
|---0---0-----3---3-----------||
|---1---1-----1---x---2b4-0---||
|---2---2-----2---2---------2-||
|-----------------------------||
|-0-0-0---0-0-0-0---0---------||


 Chorus 1 – “Cuz I’m a voodoo chile . . .”
|-----------------------------|---------------------|
|-------------3-3-------------|---------------------|
|---0-3-3-0-3-3-3-0-3-3-3-3-3-|-5-5-5-5-5-5-5-5-----|
|-----x-x-x-x-x-x-----x-x-x-x-|-x-x-x-x-x-x-x-x-----|
|-3---3-3-3-3-3-3-----3-3-3-3-|-5-5-5-5-5-5-5-5-5s7-|
|-----------------------------|---------------------|

|-----3-----------0-0-0--------|
|-----3-----------0-0-------0--|
|-----------------2-0-------0--|
|-----------------------14\----|
|------------------------------|
|-0-0---0-0-(0)-0--------------|


                          Guitar Solo 1
                          w/ wah just short of full treble seting
|-----------------0--0--||--------------------------------------------------|
|---0-0-----0---0-0--0--||-15b17--15pb17r(15)-12-15-(15)b15.5-15pb17==(17)--|
|---1-1-----x---1-4-(4)-||--------------------------------------------------|
|---2-2-----2---2-------||--------------------------------------------------|
|-----------------------||--------------------------------------------------|
|-0-----3p0---0---------||--------------------------------------------------|

|----------------------------------------------------------------------------------|
|-15b17==(17)r(15)-12-------12-15p12-----------------------------------------------|
|---------------------14b16----------14b16r(14)p12----12h14b16==(16)--14pb16r(14)--|
|--------------------------------------------------14------------------------------|
|----------------------------------------------------------------------------------|
|----------------------------------------------------------------------------------|

|-------------------------------------------|-----------------------------12-15b19==|
|-------------------------------------------|--------------------12-15b17-----------|
|-12----------------------------------------|---------------------------------------|
|-------------14-(14)-14-x-12---------------|-14-----------14-14--------------------|
|-------12h14-----------------14s12-12-10---|------12s14----------------------------|
|-----0-----------------------------------0-|----0-------0--------------------------|

|-(19)--(19)-(19)-15b17-15-12h14p12---------12-------|
|-----------------------------------15b15.5----15b17-|
|----------------------------------------------------|
|----------------------------------------------------|
|----------------------------------------------------|
|----------------------------------------------------|

|-12-----------------------------------------------------------------12------------------------|
|----15p12----12h15p12-12h15p12h14-----12h15-12h14p12----12-15-15b17----15p12------------------|
|----------14----------------------(0)----------------14----------------------14b16r(14)p12----|
|-------------------------------------------------------------------------------------------14-|
|----------------------------------------------------------------------------------------------|
|----------------------------------------------------------------------------------------------|

|---(0)---------------0-0--------------------|
|---------------------0-0--------------------|
|----2b4==(4)r(2)-0---------------2b4==(4)---|
|---------------------2-2-----0-2------------|
|--------------------------------------------|
|-0-----------------0-----3b4----------------|

|------------------------------------------|
|------------------------------------------|
|-(4)r(2)----------------------------------|
|------------------12-14-(14)-12-----------|
|---------2---x/-----------------14s12-----|
|-----------0-x/-0---------------------0-0-|

|-------------------------------------------------------------------0--------|
|-------12-15-12-------12-15-12-------12-15-12-------12-15p12-12h15-0-12-----|
|-14b16----------14b16----------14b16----------14b16----------------0-14b16==|
|----------------------------------------------------------------------------|
|----------------------------------------------------------------------------|
|----------------------------------------------------------------------------|

Start to rock wah - 
|---------------------------------------------------------------------------|
|-(12)-12-15-12-------12-15-12-------15p12-------15-12----12h15p12-------12h|
|-(16)----------14b16----------14b16-------14b16-------14----------14b16----|
|---------------------------------------------------------------------------|
|---------------------------------------------------------------------------|
|---------------------------------------------------------------------------|

|---------------------------------------------------------------------|
|-15p12----------------15-15-----(15)-(15)-(15)-15-----(15)-(15)-(15)-|
|--------14b16r(14)p12-14-14b16==(16)-(16)r(14)-14b16==(16)-(16)-(16)-|
|---------------------------------------------------------------------|
|---------------------------------------------------------------------|
|---------------------------------------------------------------------|

|-----------------------15-15b19===(19)r(15)-|
|-(15)---------------------------------------|
|-(16)--14b15r(14)-12------------------------|
|--------------------------------------------|
|--------------------------------------------|
|--------------------------------------------|
[ Tab from: http://www.guitartabs.cc/tabs/h/hendrix_jimi/voodoo_child_tab_ver_5.html ]
                                  wah off
|------------------0-----------0-|-----------------------------------|
|----------------0---------------|-----------------------------------|
|--------------------2b4r(2)p0---|-----------------1-1-2b3r(2)p0-----|
|------------2-2---------------2-|-----------0h2-2-2-----------0h2---|
|--------------------------------|-----------------------------------|
|-0--3b3.5p0---0-----------------|-0-0-3b3.5-------------------------|


|--------------------------------|----------------------------------------------|
|--------------------------------|----------------------------------------------|
|----------0h1---x-x-1-----------|----------2b4r(2)p0---------------------------|
|----------0h2---x-x-2---0h2p0h2-|----2-0h2-----------2---------2---------------|
|--------------------------------|-------------------------------------------|
|-0--3b3.5-----0-------3---------|-0--------------------0-----0---0--3b3.5p0-|

|---------------------------------------|
|---------------------------------------|
|----------------------2b4r(2)p0--------|
|-0tr2-2-----0h2---------------0h2p0-2p=|
|---------------------------------------|
|--------0-3-----0-0-0------------------|

|----------------------------------------------|
|----------------------------------------------|
|--------------------------------2b4r(2)p0-----|
|-0-2p0h2---0-------0tr2---x---2-----------2p0-|
|-----------0----------------------------------|
|---0-----0---3b3.5------0---0-----------------|

|--------------------------------------|
|---3----------------------------------|
|--------------------------------12----|
|-----------2-5-14---------------12h14-|
|-----0-------5-14---(17)\-x-x---------|
|-0-----3p0---5-14p0-(17)\-x-xp0-------|

|----------------------------------||
|----------------------------------||
|----------------------------------||
|---2-2-------2--------------------||
|-----------------(2)-(2)----------||
|-0-----3b3.5---0---------3b3.5p0--||


 Verse 2
|-----------------------------|-------------------------------|
|-----------------------------|-------------------------------|
|-----------------2b4r(2)p0---|-------------------------------|
|-------------0h2---------0h2-|---2-2-(2)---------2---0h2---2-|
|-----------------------------|-----------------------0h2-----|
|-(0)--0--3p0-----------------|-0---------3b3.5p0---0-----0---|

|-0------------------------------------------|
|-0------------------------------------------|
|-2b4==(4)r(2)p0-------1---------------------|
|----------------2---2---------0h2p0-0h2p0h2-|
|--------------------2-------x---------0-----|
|------------------0-----3b4-x---------------|

|-0---(0)-------------------4-4--------|
|---------0-(0)-----0-------3-3--------|
|-2b4r(2)-0--1--(1)-1-0-2s4-4-4-4s2p0--|
|------------2--(2)-2-0----------------|
|--------------------------------------|
|----------------0---------------------|

|---------------------------------------------|
|---------------------------------------------|
|---------------------------------------------|
|------------0h2p0h2-0h2p0h2p0h2p0--------0h2-|
|---------------------------------------------|
|-0--0-3b3.5-----------0------------3b3.5-----|


|------------------------------------|----------------------------------------|
|------------------------------------|----------------------------------------|
|-----1-2b4r(2)p0--------------------|-------------------2b3r(2)b4==(4)r(2)p0-|
|---2-------------h2---2-----------2-|-----------2-(2)------------------------|
|------------------------------------|----------------------------------------|
|-0------------------0---0-3b3.5p0---|-0-0-0-3p0-------0----------------------|

|----------------------------|
|----------------------------|
|----------------------------|
|------------2-(2)-2-2-------|
|------------------2---------|
|-0--(0)-3p0----0------3p0-0-|

|-----------------------------------------|---------------------------|
|-----------------------------------------|---------------------------|
|---------------------------2b4r(2)p0-----|---------------1-(1)-------|
|---2-2-------0h2p0h2---2-0-----------2-2-|---2---0-------2-(2)-----0-|
|-----------------------------------------|---------------------------|
|-0-----3b3.5---------0-------------------|-0---0-3b3.5p0----0--0-0---|


|---------------------|----------------------|-----------------0-------------|
|-3---3-3-3-3---3-3-2-|-2-2-2-2-2-2-2-2-3\-3-|-----------------0---0-0-0-----|
|-4---4-4-4-4---4-4-2-|-2-2-2-2-2-2-2-2-4\-4-|---1-1-2b4r(2)p0-----1-1-1-----|
|-x---x-x-x-x---x-x-x-|-x-x-x-x-x-x-x-x-x--x-|---2-------------2---2-2-2-----|
|-5---5-5-5-5---5-5-4-|-4-4-4-4-4-4-4-4-5\-5-|---------------------x-x-x-----|
|---0-------0-0-------|-0-0-0-0-0-0-0-0-0----|-0-----------------0-0-0-0-3p0-|


                          Chorus - 
|---------0-0-0-0-0-----||-------------------------|---------------------|
|-3-3-3-0-0-0-0-0-0-3p0-||-------------------------|---------------------|
|-1-1-1-1-1-1-1-1-1-1---||-----3-3-3-3-3---3---3---|-5-5-5-5-5-5-5-5-----|
|-2-2-2-2-2-2-2-2-2-2---||---2-2-2-2-2-2---2---2---|-4-4-4-4-4-4-4-4-----|
|-x-x-x-x-x-x-x-x-x-x---||-3-3-3-3-3-3-3-3-3-3-3-3-|-5-5-5-5-5-5-5-5-5s7-|
|-0-0-0-0-0-0-0-0-0-0---||-------------------------|---------------------|

|--------3-(3)-3--------|--------------0---||
|----3---3-(3)-3--------|------------------||
|----4---4-(4)----------|----------------0-||
|-----------------------|----------------0-||
|-----------------------|------------------||
|-0----0---------0-0-0--|-0-0-0-0-0-0------||


 Guitar Solo 2
|----------------------------------------12-------------------------------|
|-15b17==(17)r(15)-12-15b16-15pb17==(17)----15-12-----15p12---------------|
|--------------------------------------------------14-------14b16==(16)---|
|-------------------------------------------------------------------------|
|-------------------------------------------------------------------------|
|-------------------------------------------------------------------------|

|-----------------------------------------------------------|
|-----------------------------------------------------14----|
|-(16)r(14)p12----12-14b16==(16)-(16)-(16)r(14)-12----14p12-|
|--------------14----------------------------------14-14p12-|
|-----------------------------------------------------------|
|-----------------------------------------------------------|

|-------12-------12-15p12-15b19==(19)-(19)-15-12-14p12-12----12--------|
|-15b17----15b17---------------------------------------15b17----15p12--|
|----------------------------------------------------------------------|
|----------------------------------------------------------------------|
|----------------------------------------------------------------------|
|----------------------------------------------------------------------|

|------------------------------------------12----------------|
|---15p12-12-------------------------12-15----15b17-12-12-12-|
|-x-------14b16-14p12----12h14b16-14-------------------------|
|---------------------14-------------------------------------|
|------------------------------------------------------------|
|------------------------------------------------------------|

|---------------------------------12------------------------------------------|
|------------------------------15----15-12------------15----------------------|
|-14b16r(14)p12----12h14b16-14-------------14b16r(14)----14b16-14p12----12h14-|
|---------------14---------------------------------------------------14-------|
|-----------------------------------------------------------------------------|
|-----------------------------------------------------------------------------|

|-------------------------------------------------|
|-15b17--12---------------------------------------|
|--------14b16r(14)p12----14-(14)-12--------------|
|----------------------14-14-(14)-12-14-12--------|
|------------------------------------------14s(0)-|
|-------------------------------------------------|

                                              wah on & rock
|-----------------------------|-3--3-3---3-(3)--3-3--|
|---------0-(0)---------------|-3--3-3p0-3-(3)--3-3--|
|-2b4r(2)p0-----------------1-|----------------------|
|------------2--------2-----2-|----------------------|
|-----------------------------|----------------------|
|---------------0-(0)-0-3p0---|----------------------|

|-3-3-----3-3---3-(3)-3----------|
|-3-3-(3)-3-3---3-(3)-3---x/-----|
|-------------------------x/-----|
|-------------2-----------x/-----|
|--------------------------------|
|-----------------------0----3-0-|

|-3-3-3-3-3-----3-3--------------------|----3---3-(3)-3-3-3---|
|-3-3-3-3-3-----3-3--------------------|----3---3-(3)-3-3-3---|
|-----------(2)-----2b4==(4)r(2)-0---1-|----------------------|
|----------------------------------2---|----------------------|
|--------------------------------------|----------------------|
|--------------------------------------|-0----0---------------|

|-3-3-3---3---3-3-x/-4-(4)s16-|
|-3-3-3---3p0-3-3-x/-x-----x--|
|---------------2-x/-4-(4)s16-|
|-----------------------------|
|-----------------------------|
|-------0---------------------|

|-16-16-16-16-16-16-/16-16-16-16-16-16-16-16-16-16-16-16-16-16-16-16-16-13/---|
|-x--x--x--x--x--x---x--x--x--x--x--x--x--x--x--x--x--x--x--x--x--x--x--x-----|
|-16-16-16-16-16-16-/16-16-16-16-16-16-16-16-16-16-16-16-16-16-16-16-16-13/---|
|-----------------------------------------------------------------------------|
|-----------------------------------------------------------------------------|
|-----------------------------------------------------------------------------|

|-/16-16-16-16-16-16-16-16-16-16-16-16-16-16-16-16-16-x-xs16-x\-----|
|--x--x--x--x--x--x--x--x--x--x--x--x--x--x--x--x--x--x-x----x\-(0)-|
|-/16-16-16-16-16-16-16-16-16-16-16-16-16-16-16-16-16-x-x----x\-----|
|-------------------------------------------------------------------|
|-------------------------------------------------------------------|
|-------------------------------------------------------------------|

|-----------------0--0-3p0-----|
|-----------------0--0-3p0-----|
|-1--2b4r(2)p0-------1---------|
|-2------------2-(2)-2---------|
|-x----------------------------|
|-0------------------------0-0-|

|----------------------------------|-----------------------------------------------|
|-------------------------------15-|-17b19--17-15-17----15-------------------------|
|-----2b4==(4)r(2)p0--------/16----|-----------------16----14-16-12h14-14b16==(16)-|
|--------------------2-------------|-----------------------------------------------|
|----------------------------------|-----------------------------------------------|
|-0-0------------------0-----------|-----------------------------------------------|

|----------------------------------------|
|--------15-15---------------------------|
|-(16)---------14pb16r(14)-12-14-12------|
|-----------------------------------14\--|
|----------------------------------------|
|----------------------------------------|

|----0-----------------------------|
|----0-----------------------------|
|------2b4r(2)p0-----------1-----1-|
|----------------2-(2)-2---2-----2-|
|------------------------2---------|
|-0--------------------------3p0---|

|-3-3-3-3---3-3-(3)-3-------------|-3-3---3-3-(3)----|
|-3-3-3-3p0-3-3-(3)-3---------0---|-3-3-0-3-3-(3)----|
|---------------------2b4r(2)p0---|-----0------------|
|-------------------------------2-|------------------|
|---------------------------------|------------------|
|---------------------------------|------------------|

|-3-3-3-3-3-(3)----|-3-3-3-0----------0-------0-0-0-0-(0)-0--(0)-|
|-3-3-3-3-3-(3)----|-3-3-3-0----------0-------0-0-0-0-(0)-0--(0)-|
|------------------|---------14b16==(16)-(16)--------------------|
|------------------|---------------------------------------------|
|------------------|---------------------------------------------|
|------------------|---------------------------------------------|

|--0-----0---------0----0------------0-------------0--------|
|--0-----0----0-0--0----0--0-----(0)-0--0-----0----0--0-----|
|-14b16-14b16-----14b16---14b16-(16)---14b16-14b16---14b16--|
|-----------------------------------------------------------|
|-----------------------------------------------------------|
|-----------------------------------------------------------|

|-0-------0-------0-------0-------0----19b21===(21)-|
|-0--0----0--0----0--0----0--0----0-x\--------------|
|---14b16---14b16---14b16---14b16---x\--------------|
|-----------------------------------x\--------------|
|---------------------------------------------------|
|---------------------------------------------------|

|-------3------------|---------------------------|
|-0-0-0-3---0--------|---------------------0-----|
|-x-x-x-0---1--------|-2b3r(2)-0-----------------|
|-2-2-2-----2------2-|-----------2---------2-2p0-|
|-x---------x--------|---------------------------|
|-0-----3p0-0-0------|-------------0-(0)-0-------|

|------------------------0-0-0---|-------------------0-0-0-0-0-|-------------|
|------------------------0-0-0---|-------------------0-0-0-0-0-|-------------|
|-2b4==(4)r(2)p0---------------2-|-2b4r(2)p0-------------------|-2b4==(4)----|
|----------------2---------------|-----------2-----------------|-------------|
|--------------------------------|-----------------------------|-------------|
|------------------0-(0)---------|-------------0-(0)-----------|-------------|

|---------------------------|
|---------------------------|
|-(4)r=====(2)b4==(4)r(2)p0-|
|---------------------------|
|---------------------------|
|---------------------------|

|----0-------------x---3-3-------|------------------x-------|
|----0-------------x---3-3-0tr5--|-(0tr5)---3p0-(0)-x-xsx/--|
|--------------------------------|--------------------xsx/--|
|------------0-2-----------------|--------------------xsx/--|
|--------------------------------|--------------------------|
|-0----3b3.5-----0---0-----------|--------------------------|

|------------------------|---------------------------------|-------------*|
|-------------0-(0)------|---------------------------------|-x-x---------*|
|-2b4r(2)p0h1-1-(1)------|-2b3==(3)-(3)r(2)p0h1------------|-x-x---------*|
|---------0-2-2-(2)------|------------------0h2-------2----|-x-x---------*|
|-------------x-----2----|---------------------------------|-------------*|
|-------------0-(0)-0----|----------------------0-(0)------|-------------*|

 
 
 
  

Comments