Hendrix Jimi - The National Song Chords & Tabs

 

The National Song Chords & Tabs

Hendrix Jimi Chords & Tabs

Version: 1 Type: Tab 1 rating
1 star 2 stars 3 stars 4 stars 5 stars
comments

The National Song Tab

   
The national song 
-------------------- 
Artist :-> jimi hendrix

This is my version of the national song , i think it's not complete but 
this is a perfect base , enjoy it ! 

- Fender stratocaster
- Boss Compressor
- Overdrive
--------------------------------
Intro : 
[ Tab from: http://www.guitartabs.cc/tabs/h/hendrix_jimi/the_national_song_tab.html ]
    A                                             ~~~
E--------------0---------------------------------------------|
B------------2----7h9p7h9p7h9p7---5h7p5h7p5h7p5--5---0-2-4-5-|
G--2-------2-------------------------------------------------|
D----2---2---------------------------------------------------|
A------0-----------------------------------------------------|
E------------------------------------------------------------|
       ( bend slowly )
E------------|------------------------------------------------|
B--0--5b7b5----5h7p5h7sl9---0--0--7h9p7h9p7h9p7--5h7p5h7p5h7--|
G-------------------------------------------------------------|
D-------------------------------------------------------------|
A-------------------------------------------------------------|
E-------------------------------------------------------------|
               E              
E--------------0--|
B---0-2-0-4-5--0--|
G--------------1--|       I think that this is the way Hendrix played
D--------------2--|       i't Enjoy it !!!
A--------------2--|
E--------------0--|

______________________________________________________________________
Yoshi_adriaensen@hotmail.com http://www.the-blacks.cjb.net
----------------------------------------------------------------------
Comments