Hendrix Jimi - Star Spangled Banner Chords & Tabs

 

Star Spangled Banner Chords & Tabs

Hendrix Jimi Chords & Tabs

Version: 3 Type: Tab 3 ratings
1 star 2 stars 3 stars 4 stars 5 stars
comments

Star Spangled Banner Tab

Star Spangled Banner-Jimi Hendrix
Tabbed By- Voodoochild9891
Email me At Hardcorejollies7@aol.com

e|------------0--2/4-2-0-------------------------------------0-0---|
B|-0---------0----------------------------7^---5-5h7p5-4-2-4------0|
G|---0h1---1--------------1-1/3- -3/4-4-4-7^-----------------------|
D|-------2---------------------------------------------------------|
A|-----------------------------------------------------------------|
E|-----------------------------------------------------------------|
[ Tab from: http://www.guitartabs.cc/tabs/h/hendrix_jimi/star_spangled_banner_tab_ver_3.html ]
e|---------------0-2/4-4h5p4h5p4h5p4h5p4-2-0-----------------------|
B|-------0------0--------------------------------------7^-5-5h7p5-4|
G|-0h1-----1---1----------------------------1/31-4-4-4------------|
D|-----2-----2-----------------------------------------------------|
A|-----------------------------------------------------------------|
E|-----------------------------------------------------------------|

e|----------0-0------2/4-4-4-5-7-7|
B|-5-7-4/24----0-----------------|
G|----------------1---------------|
D|------------------2-------------|
A|--------------------------------|
E|--------------------------------|

AT this point in the song Jimi decides to take off and go on a solo i'll try to get it in
later.  Hope this helps you find out how to play the main part.
Email me at Hardcorejollies7@aol.com
Comments