Hendrix Jimi - Star Spangled Banner Chords & Tabs

 

Star Spangled Banner Chords & Tabs

Hendrix Jimi Chords & Tabs

Version: 2 Type: Tab 15 ratings
1 star 2 stars 3 stars 4 stars 5 stars
comments

Star Spangled Banner Tab

   
SONG: The Star Spangled Banner
ARTIST: Jimi Hendrix(Arranged And Adapted)
KEY: E Major(E;F#;G#;A;B;C#;D#;E)
NOTE: Timing changes quite a bit in the second half of the song...does not contain Jimi's solos and improvised licks...enjoy!!!

Measure One:
   E Major                    
   e.s    q q q   h e.s   q q q   h e e   q.e e.s e   h e.s   q q q   q q e e   q q q   h.
 |-----||-------|-0-4-2-|-0-----|-------|-4-2-0-2-0-|-------|-0-0---|---------|-------|-0-|
3|-0---||-----0-|-------|-------|-0-0-0-|-----------|-4-2-4-|-----0-|-----0---|-----0-|---|
-|---1-||---1---|-------|---1-3-|-------|-----------|-------|-------|-1-----1-|---1---|---|
4|-----||-2-----|-------|-------|-------|-----------|-------|-------|---2-----|-2-----|---|
 |-----||-------|-------|-------|-------|-----------|-------|-------|---------|-------|---|
 |-----||-------|-------|-------|-------|-----------|-------|-------|---------|-------|---|

Measure 12:
  q q q   q q e e e   h q   h q   s s h e e   h   q q e e e   h e.s   q q q   q q e.s
|-0-4-2-|-0---------|-----|-----|-----------|-4-|-0-2-0-2-0-|-------|-0-0---|-----4-4-|
|-------|-----------|-0-2-|-4-2-|-0-2-0-0-0-|---|-----------|-4-2-4-|-----0-|---------|
|-------|---1-3-1-2-|-----|-----|-----------|---|-----------|-------|-------|-1-------|
|-------|-----------|-----|-----|-----------|---|-----------|-------|-------|---2-----|
|-------|-----------|-----|-----|-----------|---|-----------|-------|-------|---------|
|-------|-----------|-----|-----|-----------|---|-----------|-------|-------|---------|
[ Tab from: http://www.guitartabs.cc/tabs/h/hendrix_jimi/star_spangled_banner_tab_ver_2.html ]
Measure 22:
  q q q   h                                 e.s   q q q   h           q   q e s s s q
|-4-5-7-|-7-[ Electronic effects- falling ]-5-4-|-2-4-5-|-5-----------5-|-4-4-2-4-2-0-|
|-------|---| bombs, explosions, cannon   |-----|-------|---------------|-------------|
|-------|---| fire, diving airplanes,     |-----|-------|---[Effects]---|-------------|
|-------|---| screams, etc...             |-----|-------|---------------|-------------|
|-------|---|                             |-----|-------|---------------|-------------|
|-------|---[                             ]-----|-------|---------------|-------------|

Measure 27:                        4                             3
                                   -                             -
                                   4                             4
  h E E   q q q   h           E E   h.E E   h.E E   q E E q E E   h.q   E.s q E E
|-------|-0-----|-----------------|-0---0-|-4---0-|-4---0-4---0-|-4---|-0-0-0-0---|
|-4-2-4-|-------|-0-----------0-0-|---0---|---0---|---0-----0---|---0-|---------4-|
|-------|---1-3-|---[Effects]-----|-------|-------|-------------|-----|-----------|
|-------|-------|-----------------|-------|-------|-------------|-----|-----------|
|-------|-------|-----------------|-------|-------|-------------|-----|-----------|
|-------|-------|-----------------|-------|-------|-------------|-----|-----------|

Measure 35:
  q q E E   E E q E E E E   q q           E E   q.E E E   h           E E   q.E q
|-------0-|-2-4-5-5-4-2-0-|-0-----------------|-0-2-4-5-|-7-----------0-2-|-4-5-4-|
|-2-2-4---|---------------|---4-----------0-0-|---------|-----------------|-------|
|---------|---------------|-----[Effects]-----|---------|---[Effects]-----|-------|
|---------|---------------|-------------------|---------|-----------------|-------|
|---------|---------------|-------------------|---------|-----------------|-------|
|---------|---------------|-------------------|---------|-----------------|-------|

Measure 41:
  h.q   h.
|-2-0-|-0-|-0-||
|-----|---|---||
|-----|---|---||
|-----|---|---||
|-----|---|---||
|-----|---|---||

DISCLAIMER: This was taken from the sheet music book: "Jimi Hendrix Anthology", and does not contain solos of any kind...the best thing to do is find a version with solos, take some from various tab sites on the net(remember to convert them to the key of E Major), or listen and like Jimi...IMPROVISE!!!
Comments