Hendrix Jimi - Soul Food Chords & Tabs

 

Soul Food Chords & Tabs

Hendrix Jimi Chords & Tabs

Version: 1 Type: Bass Tab 0 ratings
1 star 2 stars 3 stars 4 stars 5 stars
comments

Soul Food Bass Tab

Soul Food (That's What I Like) - Jimi Hendrix

  main riff                 for intro, play main riff x4 then this
G|-------------------------|--------------------------------|
D|----------------2h3p2----|----------------7777777777553322|
A|5-5-3---3-5-5--------3---|--------------------------------|
E|------5-------5--------5-|5555555555555555----------------|
[ Tab from: http://www.guitartabs.cc/tabs/h/hendrix_jimi/soul_food_btab.html ]
  play at about 1:23
G|-----------------------------------------------------------------------|
D|-------------------------------------------------------7777777777553322|
A|---3-33-----3-33-3----3-33-3----3-3------------------------------------|
E|3h5------3h5-------3h5-------3h5---53105555555555555555----------------|

A tab by Achilles (blue_sincere@hotmail.com)

Comments