Hendrix Jimi - Red House Chords & Tabs

 

Red House Chords & Tabs

Hendrix Jimi Chords & Tabs

Version: 5 Type: Tab 3 ratings
1 star 2 stars 3 stars 4 stars 5 stars
comments

Red House Tab

RED HOUSE BY JIMI HENDRIX
(SMASH HITS STUDIO VERSION)
TRANSCRIBED BY hendrix_2005@musician.org

Blues in A

sounds good with delay & fuzz

Intro:
-----10----10----10-----10----10----10----9---9---9---9---9---9---10-
------9------------------9----------------8-----------8------------9-
-/10----10----10-----10----10----10----/9---9---9---9---9---9-----10-
---------------------------------------------------------------------
---------------------------------------------------------------------
---------------------------------------------------------------------

----------------------------------------5-----5--8-5-------------------------------5---5-
-8(10)~--8(10)~--8(10)-8-8(10)------5-----8p5--------8-5-------------------------5---8---
-------------------------------7(9)----------------------7(9)-5~---7(9)-5~--7(9)---------
-----------------------------------------------------------------------------------------
-----------------------------------------------------------------------------------------
-----------------------------------------------------------------------------------------

-----------------------------------------------------------------12--------------------
------5-8p5-----------------------------------10~-12(14)---12(14)--(14)12-10-12-10-10~-
-7(9)--------7(9)7p5----------------------/11------------------------------------------
---------------------5h7p5-------------7~----------------------------------------------
---------------------------7p5\4~---/9-------------------------------------------------
---------------------------------------------------------------------------------------

-10(12)10(12)-(12)10-----8-10-8--------------------8------8--------------
---------------------10~--------10\-----8-10p8---8---10-----10-8---------
-------------------------------------/9--------9-----------------9\7-5---
-----------------------------------------------------------------------7-
-------------------------------------------------------------------------
-------------------------------------------------------------------------

Verse fills:
-----------|--------5---------------5----------------------------------
-/8~--5----|------5---8~--5-------5---8p5----------------5-------------
-------6---|--7(9)----------7(9)~---------7(9)7---5-7(9)---7(9)7-5~----
--------7--|-----------------------------------7-------------------7-5-
-----------|-----------------------------------------------------------
-----------|-----------------------------------------------------------

---------------------------------|-------------------------------------------5----------------
---------------------------------|------------------------------------------5--8(10)----------
---------------------------------|--------9h11--------------------5h7p5-7(9)-------------9----
-5h7~-7p5~-----5-7---7p5---------|-9/11~--------(13)11-9~--7h9p7---------------------9/11-----
-----------5-7-----------7p5-3~--|---------------------------------------------------------7~-
---------------------------------|------------------------------------------------------------
[ Tab from: http://www.guitartabs.cc/tabs/h/hendrix_jimi/red_house_tab_ver_5.html ]
--------5-------------------------5---5---------5-----8(10)~-8p5----------|----------
------5---8(10)~--10p8h10-------5---8---------5---8p5------------8p5------|----------
-7(9)----------------------7(9)----------7(9)------------------------7-5~-|----7\5~-
--------------------------------------------------------------------------|--/5------
--------------------------------------------------------------------------|----------
--------------------------------------------------------------------------|----------
solo:                                                                  4x
------------8--12(14)-8-----8(9)---------14(16)--12p10h12----12-----||8h10p8-||
----8-10-10-------------10~-----------13------------------/15----10-||-------||
-/9-------------------------------/14-------------------------------||-------||
--------------------------------------------------------------------||-------||
--------------------------------------------------------------------||-------||
--------------------------------------------------------------------||-------||
                                                         16x
-10/12-8h10p8------------------------------------5-----||-8p5---||-10(12)-10p8------------
--------------8/10--10p8---8-------------------5---8p5-||-----8-||-------------10--8(10)~-
-------------------------9---9\7p5---5-7--7(9)---------||-------||------------------------
-----------------------------------7-------------------||-------||------------------------
-------------------------------------------------------||-------||------------------------
-------------------------------------------------------||-------||------------------------
                                         4x
-------5-----------------5-----5-----5-8(10)-5--------/10-12-12-12-12-15(17)-15-12----12-15-
-8(10)---8p5---5~------5---8p5---8p5-----------8-5---------------------------------15-------
-------------7-----7(9)---------------------------------------------------------------------
--------------------------------------------------------------------------------------------
--------------------------------------------------------------------------------------------
--------------------------------------------------------------------------------------------

-10p8----8-10\-------------------------15(17)-13--15(17)-13--------------/17----
------10----------------------15p13-------------------------15p13---------------
--------------------12-14-14~-------14--------------------------------12-----5~-
----------------/14-----------------------------------------------/14-----------
--------------------------------------------------------------------------------
--------------------------------------------------------------------------------

--------5-------------------------
------5---8p5-------------7--7--5-
-7(9)---------7-5(6)------------7-
--------------------------7--7--6-
---------------------7~---------7-
----------------------------------

Outro:
---------------8------------8(9)-5h8p5---5-8(10)--6-5--8---------------------
-5----5----/10---10------10------------8----------6-5--8h10------------------
-7(9)-7(9)-----------/11--------------------------7-6-------9p7\5------------
--------------------------------------------------6-5-------------7p5--------
--------------------------------------------------8-7-----------------7-5-4~-
--------------------------------------------------6-5------------------------

Lyrics:

There's a red house over yonder.
That's where my baby stays.
Lord, there's a red house over yonder,
Lord, that's where my baby stays.
I ain't been home to see my baby
In ninety-nine and one half days.

Wait a minute, something's wrong here,
The key won't unlock this door.
Wait a minute, something's wrong,
Lord have mercy, this key won't unlock this door.
Something's gone wrong here--
I have a bad, bad feeling
That my baby don't live here no more.

That's alright--I still got my guitar.

Well, I might as well go back over yonder
Way back among the hills.
Yeah, that's what I'm gonna do.
Lord, I might as well go back over yonder
Way back yonder across the hills.
Even if my baby don't love me no more,
I know her sister will.



i know you can play this song in lots of ways but this seems best for me. 
Comments