Hendrix Jimi - Red House Chords & Tabs

 

Red House Chords & Tabs

Hendrix Jimi Chords & Tabs

Version: 4 Type: Tab 1 rating
1 star 2 stars 3 stars 4 stars 5 stars
comments

Red House Tab


Red House - Jimi Hendrix


Im just tabbing out the licks in between the lyrics in the verses(verses 1 &
2 starts off with a B chord).  This is my own work so maybe you 
shouldnt completely trust it! I took the intro nearly note for note with a 
few changes from the first one posted by . The solo is different and complete 
and the verses and ending are included.


INTRO-

|-----11----11----------11----11----11-|-------10----10-----10-----10-----10-|
|-/10-10----------10----10----10----10-|-10/9--9-----9---9--9------9---9--9--|
|-/11----11----11----11----11----11----|-11/10----10-----------10---------10-|
|--------------------------------------|-------------------------------------|
|--------------------------------------|-------------------------------------|
|--------------------------------------|-------------------------------------|


  T.
|-----------------------------------------------7--------9-7-----------------|
|-7-----10B--10B--10B-----10B-10-10B-10-----7-----10-7--------10-7-----------|
|-8--------------------------------------9B--------------------------9B~~----|
|-9--------------------------------------------------------------------------|
|----------------------------------------------------------------------------|
|-7--------------------------------------------------------------------------|



|----------------------------------7--------7---------7--7---------7----7----|
|----- (7)-----------------------7----10~---7-------7----10p7------7h9--7----|
|-7h9B--7~~~~-----8/9B--7~~---9B-----------------9B------------9-------------|
|----------------------------------------------------------------------------|
|----------------------------------------------------------------------------|
|----------------------------------------------------------------------------|



|----------------------------------------------------------------------------|
|--------------------------------------------------------12~--14B------14B---|
|-9--7/8----------------------------------------11h12/13---------------------|
|--------9-7-------------------------9~---11/13------------------------------|
|------------9-8-7-5/6~---------9h11-----------------------------------------|
|--------------------------7/11----------------------------------------------|



|-----------14-----14--------------------------------------------------------|
|-14B--14B~~~~14B~~~~14BR----12h14p12--12~----15BR-15B--15BR---12------------|
|-----------------------------------(13)-------------------------------------|
|----------------------------------------------------------------------------|
|----------------------------------------------------------------------------|
|----------------------------------------------------------------------------|


                                      (#)
|---------14------------------7------10br7-----9b---7---------7--------------|
|-12h14B~~~~14RB--12\-------7---10-7------------------7-----7----------------|
|------------------------/8------------------------------9B------7-----------|
|-------------------------------------------------------------------10-------|
|-----------------------------------------------------------------------10---|
|----------------------------------------------------------------------------|




VS 1-

...yonder       (*  )
|---------7-----7-----------------|  
|---------7h9----7----------------|
|-----------------x---------------|
|------------------9~-------------|
|---------------------------------|
|------------------------0--------|


...stays
|-------------7---------------------7-----------------|
|-----------7----10B~~-7----------7----10p7------7----|
|--------9B------------------9B---------------9-----9-|
|-----------------------------------------------------|
|-----------------------------------------------------|
|-----------------------------------------------------|



|--------------------------------------------|
|----------7-7---9----7----------------------|
|-----7-9----------9---7--9----7/9---7-------|
|-/9------------------------9-----------9p7--|
|--------------------------------------------|
|--------------------------------------------|


...yonder      (*   )
|---------7-----7--------------|
|---------7h9----7-------------|
|-----------------x------------|
|------------------9~~~\2------|
|------------------------------|
|------------------------------|


...stays
|----------------------------------------------------------------|
|----------------------------------------------------------------|
|----------------------------------------------------------------|
|---------7/9~~----9\7------------7/9---7------------------------|
|---------------------------7-8-9---------9-8-7------------xx--4-|
|-----------------------10-----------------------10p7------xx--2-|


...baby
|----------------------|  
|----------------------|
|----------------------|
|-----------------2----|
|------------2h4-------|
|-------2/4----------0-|


...days
|------------------------------------------------/7--------------------------|
|-----------7-9-7--------------------------7h9---/7------------7-------------|
|-------/7B~~~~~~~7PBR----------4~~-----7B-----------------/8----------------|
|-----------------------4/6-4h6----------------------------------------------|
|-----------------------------------------------------------------9~---------|
|----------------------------------------------------------------------------|




VS 2-

...wrong       (*   )      
|----------7----7------------------------|
|----------7h9---7-----------------------|
|-----------------x----7h9--7------------|
|------------------9-----------9p7--9----|
|----------------------------------------|
|----------------------------------------|


...door
|------------7-------7----7---------7------9-7----------7--------------------|
|----------7---10B~~---10---------7---10-7-----7h10B~~-----10p7--------------|
|-------9B---------------------9B--------------------------------------------|
|----------------------------------------------------------------------------|
|----------------------------------------------------------------------------|
|----------------------------------------------------------------------------|


[ Tab from: http://www.guitartabs.cc/tabs/h/hendrix_jimi/red_house_tab_ver_4.html ]
|----7-------/12-10---------------------|
|---7--10-7---------12-10---------------|
|-9B----------------------11-10-9-7~----|
|---------------------------------------|
|---------------------------------------|
|---------------------------------------|


...wrong baby
|----------------------------------|
|----------------------9\7---------|
|----------------------------------|
|----------------------------------|
|---------------9/11---------------|
|----------------------------------|

       (fiddle around
..door  with this)
|---------7----------------------------------------|
|------7--7----------------------------------------|
|------9B-------------------9BRp7---7~-------------|
|---------------------------------9-----9p7----7~~-|
|--------------------------------------------9-----|
|--------------------------------------------------|


...feelin
|----------9/11\9~~-7/9\7---------|
|----------x----------------------|
|----------9/11\9~~-7/9\7---------|
|---------------------------------|
|---------------------------------|
|---------------------------------|



..more
|-------------7--------------------------------------|
|-----------7----10p7-------7------------------------|
|------9B---------------9B---7--9---7/9---7----------|
|--------------------------------9----------9p7------|
|-----------------------------------------------9----|
|----------------------------------------------------|



SOLO-

|---7-7-------10-12B--10----10-----------14B---14-12-14-10-12-12PB-----------|
|-7------/12------------12------------12-------------------------------------|
|---------------------------------/13----------------------------------------|
|----------------------------------------------------------------------------|
|----------------------------------------------------------------------------|
|----------------------------------------------------------------------------|




|--10h12p10-----10h12p10-----10h12p10------10-12B--10h12p10\7----------------|
|-----------12-----------12-----------12----------------------10B------------|
|----------------------------------------------------------------------------|
|----------------------------------------------------------------------------|
|----------------------------------------------------------------------------|
|----------------------------------------------------------------------------|



                                                      (Keep repeating this..)
|-7------------------------------------7------9p7------10p7---10p7-----------|
|---10p7-7h10p7-----------------------7--10p7-----7---------7-----7----------|
|---------------9-7h9p7---7--------9B----------------------------------------|
|-----------------------9----------------------------------------------------|
|----------------------------------------------------------------------------|
|----------------------------------------------------------------------------|




|-10B-10--7-9p7-----7------7----------7--------------------------------------|
|----------------10--10B-----10p7----7--10p7-----7---------------------------|
|----------------------------------9B---------9B---9p7----9---7--------------|
|-------------------------------------------------------9---9----------------|
|----------------------------------------------------------------------------|
|----------------------------------------------------------------------------|




|----7------10p7------10B-10--7---------7----10B-10-7-----10B-10-7-----------|
|---7--10p7------7--------------7---10--7-------------7------------7---------|
|-9B-------------------------------------------------------------------------|
|----------------------------------------------------------------------------|
|----------------------------------------------------------------------------|
|----------------------------------------------------------------------------|




|-10B-10-7------/12-14--13/14-14---17B-17-14h17p14---17-14-------------------|
|----------7---------------------------------------17------17B--17-15h17p15--|
|----------------------------------------------------------------------------|
|----------------------------------------------------------------------------|
|----------------------------------------------------------------------------|
|----------------------------------------------------------------------------|




|----------------7------10------------14B-14--14B-14--14B-14--12h14--10B-----|
|----15~~\-----7----/12----12p10---12----------------------------------------|
|-16--------/8---------------------------------------------------------------|
|----------------------------------------------------------------------------|
|----------------------------------------------------------------------------|
|----------------------------------------------------------------------------|




|------7--12/19----------7---------------------------------------------------|
|----7-----------------7---10p7--------7h9--7--------------------------------|
|-9B------------7~--9B----------7------8h9---7-------------------------------|
|---------------------------------9-----------9------------------------------|
|-----------------------------------9----------9--------8--9-----------------|
|---------------------------------------------------0---6--7-----------------|

 
im skippin VERSE 3 coz im too lazy but they are practically the same licks as
the rest of the song.


End-

|------7-9-7---7h9p7---7--9B------------7---7--------------------------------|
|-7--7-------9-------9--------9--8------7h9-7--------------------------------|
|-9B--------------------------10-9------------9-7/8--------------------------|
|-----------------------------9--8------------------9p7---7------------------|
|-------------------------------------------------------9---9p7\5~~----------|
|----------------------------------------------------------------------------|






/ - slide up
\ - slide down
B - full bend
b - half bend
R - release bend
P - pre bend
h - hammer on
p - pull off
(*) - where u see this rake the notes
(#) - where this is it is a quarter bend 
T. - use your thumb on the low e string

Any Corecteonz or questions contact me(daithi o'brien)
at - vesper121@yahoo.com
Comments