Hendrix Jimi - Red House Chords & Tabs

 

Red House Chords & Tabs

Hendrix Jimi Chords & Tabs

Version: 3 Type: Tab 0 ratings
1 star 2 stars 3 stars 4 stars 5 stars
comments

Red House Tab

#----------------------------------PLEASE NOTE--------------------------------#
#This file is the author's own work and represents their interpretation of the#
#song. You may only use this file for private study, scholarship, or research.#
#-----------------------------------------------------------------------------#
#-- File created with Instab - http://www.pconline.com/~smcarey/instab.html --#
#-----------------------------------------------------------------------------#

Author/Artist: Hendrix, Jimi
Title: Red House
Album: Are You Experienced
Transcribed by: BluesBum
Email: axl_000@hotmail.com

This is the way I play the beginning of "Red House."
The value of each bend is typed above the staff.
I'll let you figure out the rhythm ;-)

v = vibrato, r = release bend/pre-bend,
^ = bend, / = slide up, \ = slide down.
h = hammer on, p = pull off

-----11----11--------11----11----11-|-------10----10----10----10----10------|-
------------------------------------|----------------------------------9--9-|-
-/11----11----11--11----11----11----|-11\10----10----10----10----10-------10|-
------------------------------------|---------------------------------------|-
------------------------------------|---------------------------------------|-
------------------------------------|---------------------------------------|-
      1     1     1      1        1      1                       1            

-11-------------------|-----------------------7-------9p7---------------------
-10--10^v--10^v--10^v-|-10^--10--10^--10----7---10--7-----10--7---------------
-11-------------------|------------------9^----------------------9^--9--9/11--
----------------------|-------------------------------------------------------
----------------------|-------------------------------------------------------
----------------------|-------------------------------------------------------
                                1                 1                           
[ Tab from: http://www.guitartabs.cc/tabs/h/hendrix_jimi/red_house_tab_ver_3.html ]
---|---------------7---------------|---7---------------------|----------------
---|-------------7---10v-----10----|-7---10--7---------------|----------------
-7-|-9/11--7v--9---------/11----9^-|-----------9--11^-11r--9-|-7^-------------
---|-------------------------------|-------------------------|----9--7--------
---|-------------------------------|-------------------------|---------9--8---
---|-------------------------------|-------------------------|----------------
                                          1    1    1     1       1------     

-------|-----------------------------------------------|------14-----14-------
-------|----------------------------12v--14^--14^--14^-|-14^v----14^----14r---
-------|----------------8--10/11/13--------------------|----------------------
-------|-----4/6--9--/9--------------------------------|----------------------
-7--5v-|---6-------------------------------------------|----------------------
-------|-7---------------------------------------------|----------------------
                      1.5    2        1                                 1/4   

-----------------|-----------------------14-|---------------------------------
-12h14p12h14p12v-|-15^r^v--15^r--12--14^----|-14-12v\-------------------15^---
-----------------|--------------------------|-----------------16--14----------
-----------------|--------------------------|---------/14--16--------16-------
-----------------|--------------------------|---------------------------------
-----------------|--------------------------|---------------------------------
     1/4        1                                                             

----10^-------------------------------|---------------------------------------
--------12----------------------------|---------------------------------------
-16--------11-------------------------|---------------------------------------
--------------14^rh12----12-----------|---------------------------------------
----------------------14----12--------|---------------------------------------
-------------------------------14--14-|---------------------------------------
                                                                              

Comments