Hendrix Jimi - Red House Chords & Tabs

 

Red House Chords & Tabs

Hendrix Jimi Chords & Tabs

Version: 2 Type: Tab 1 rating
1 star 2 stars 3 stars 4 stars 5 stars
comments

Red House Tab

   
RED HOUSE
As recorded by The Jimi Hendrix Experience
(From the 1967 Album ARE YOU EXPERIENCED ?)

Gtr I (Eb Ab Db Gb Bb Eb) - 'Jimi Hendrix - Lead/Rhythm w/dist'
Gtr II (Eb Ab Db Gb Bb Eb) - 'Noel Redding - Rhythm w/dist'

Intro
  Q.=60
 12/8
  Gtr I
  e  e   e       e  e  e  e  e   e   e  e  e  e  e  e
|-----------||-----11----11------------11----11----11-|
|-----------||-/10-10----10----(10)----10----10----10-|
|-----------||-/11----11----11------11----11----11----|
|-----------||----------------------------------------|
|-----------||----------------------------------------|
|-x-(x)-----||----------------------------------------|
|
| Gtr II
| Q      e       e  Q     e  Q       e  Q     e  Q
|-----------||----------------------------------------|
|-----------||----------------------------------------|
|-------(0)-||----------------------------------------|
|-----------||----------------------------------------|
|-----------||------------9-------------------9-------|
|-------(0)-||---7--------7----------7--------7-------|


                                                       ~~~~~         ~~~~~         ~~~~~
   a  e  e  e  e e  e  e  e  e  e e  e   e Q   e       Q     e       Q     e       Q
|-------10----10---10----10----10---10-|-------------------------------------------------|
|-10s=9--9-----9-9--9-----9-----9-9--9-|------10b12==(10)r--10b12==(10)r--10b12==(10)r---|
|-11s10----10---------10----10------10-|-------------------------------------------------|
|--------------------------------------|-------------(10)----------(10)----------(10)----|
|--------------------------------------|-9-----------------------------------------------|
|--------------------------------------|-7-----------------------------------------------|
|
|     e  Q     e Q     e  Q     e Q      e Q   Q.            H.
|--------------------------------------|-------------------------------------------------|
|--------------------------------------|-------------------------------------------------|
|--------------------------------------|-------------------------------------------------|
|--------------------------------------|-------------------------------------------------|
|--------------9----------------9------|-9-----------------------------------------------|
|-----7--------7-------7--------7------|-7-----------------------------------------------|



   a      +E    E  E      E a     +E   E S  S S S S  S S S     +Q
|----------------------------------------7------9-7------------------|
|-10b12==(10)r-10-10pb12-10------------7---10-7-----10-7-------------|
|---------------------------9b11==(9)r-------------------9b11==(9)r--|
|--------------------------------------------------------------------|
|--------------------------------------------------------------------|
|--------------------------------------------------------------------|


                ~~~~~~~~~~~~~~~~~~~~~~~~~
   S a     +e   e.   +Q.    +Q    e  +Q   e
|------------------------------------------|
|-------------------------------(7)-(7)----|
|-7h9b11==(9)r-7----(7)----(7)--(7)-(7)----|
|------------------------------------------|
|------------------------------------------|
|------------------------------------------|
|
| Q               e  Q   e  Q    e   Q   e
|------------------------------------------|
|------------------------------------------|
|------------------------------------------|
|------------------------------------------|
|-2------------------2---4--2--------5---4-|
|-0---------------0--3---4--0----0---0-----|


                 ~~~~~~                   ~~~
  S S a     +E   E +Q.    a     +S   S S  E.   S  S  S S       +E
|--------------------------------------7-------7-----------------------|
|------------------------------------7---10-------------------------|
|-7h8-9b11==(9)r-7-(7)----9b11==(9)r----------------9b11====(9)r----|
|----------------------------------------------------------------------|
|----------------------------------------------------------------------|
|----------------------------------------------------------------------|
|
| Q              e  Q   e        Q           e Q             a  e
|----------------------------------------------------------------------|
|----------------------------------------------------------------------|
|----------------------------------------------------------------------|
|--------------------------------------------2-------------------------|
|----------------2--2---4----------------------5-------------5s=9------|
|-0--------------0--3---4--------0-------------------------------------|


                          |3|
  S S  S S E a  E E  E a  E S S S  S S a  Q   E
|---7--7----------------------------------------|
|-7---10p7---7h=9-7-----------------------------|
|----------9---------9-7h=8---------------------|
|---------------------------9-7-----------------|
|-------------------------------9--8-7-5s=7-----|
|-----------------------------------------------|
|
| Q        e    Q    e    Q        e      Q   e
|-----------------------------------------------|
|-----------------------------------------------|
|-----------------------------------------------|
|-----------------------------------------------|
|-9--------9---11---11---12-------12-----11--11-|
|-7-------------7---------7---------------7-----|


            ~~                   ~~~~~~~
  a  S S  S e.    a  S  e  S  S  S  +e.  a      +e.     e  a      +e    a      +e
|-----------------------------------------------------------------------------------|
|-------------------------------12-(12)-14b16==(14)r------14b16==(14)r-14b16==(14)r-|
|----------------------11h12s13-----------------------------------------------------|
|-----------9----11s13--------------------------------------------------------------|
|------9-11-------------------------------------------------------------------------|
|-9s11------------------------------------------------------------------------------|
|
|    Q         e     Q        e      Q               e  Q                       e
|-----------------------------------------------------------------------------------|
|-----------------------------------------------------------------------------------|
|-----------------------------------------------------------------------------------|
|-----------------------------------------------------------------------------------|
|----9---------9----11-------11------9---------------9-11-----------------------7---|
|----7---------------7---------------7------------------7---------------------------|


           ~~~~~                                                ~~~
                                                       |--3--|
   a      +Q.      E  a      +Q      S  S      +S   S  S  S  S  Q.
|-----------------14----------------14--------------------------------|
|-14b16==(14)r-------14b16==(14)r------14pb16r(14)-12h14p12h14-12-----|
|---------------------------------------------------------------------|
|---------------------------------------------------------------------|
|---------------------------------------------------------------------|
|---------------------------------------------------------------------|
|
|          Q    e  Q              e  Q                 e        Q   e
|---------------------------------------------------------------------|
|---------------------------------------------------------------------|
|---------------------------------------------------------------------|
|---------------------------------------------------------------------|
|----------4----4--6--------------6--4-----------------4--------6---4-|
|----------2----2--2--------------2--2--------------------------2---2-|


                             ~~~~~                        ~~~~~~~
  S  S      +E.        +S   +Q.     S  a      +E   +E     S  +E.  S      +S    S
|-----------------------------------------------------------------------------14-|
|---15pb16r(15)b19====(15)-(15)r------15b19==(15)r(15)---12-(12)-14b16==(14)r----|
|--------------------------------------------------------------------------------|
|--------------------------------------------------------------------------------|
|--------------------------------------------------------------------------------|
|--------------------------------------------------------------------------------|
|
| Q                 E        Q    E Q                  E      Q           S    S
|--------------------------------------------------------------------------------|
|--------------------------------------------------------------------------------|
|--------------------------------------------------------------------------------|
|--------------------------------------------------------------------------------|
|-2--------------------------2----4-2-------------------------5-----------7s===9-|
|-0-----------------0--------3----4-0------------------2------0------------------|


      ~~~~~~~~
                     |3|
   S  E  +E     S a  E S S  S  S  S E Q    E a     +S   S  S a     +S
|------------------------7-------10p7--------9b11==(9)r-7---------------|
|-14-12-(12)\----------7---10--7---------------------------7------------|
|-----------------4s=8---------------------------------------9b11==(9)r-|
|-----------------------------------------------------------------------|
|-----------------------------------------------------------------------|
|-----------------------------------------------------------------------|
|
|  Q          e      Q         e    Q   e  Q               e
|-----------------------------------------------------------------------|
|-----------------------------------------------------------------------|
|-----------------------------------------------------------------------|
|-----------------------------------------12----------------------------|
|--9----------9-----11--------11----9---9-11--------------11------------|
|--7-----------------7---------7--------7-------------------------------|


                                   Verse 1
                                                                |-3-|
  S S E.   S +Q.     +H.            Q.    a  Q  E  Q.     a  E. T T T E
|--------------------------------||--------------------------7--7----------|
|-7------------------------------||----------7------------7h=9----7--------|
|---7----------------------------||-------7h=8----------------------7------|
|-----7--------------------------||-----------------------------------9----|
|----------9-(9)-----(9)---------||----------------------------------------|
|--------------------------------||----------------------------------------|
|
| Q      e    e  e e  Q.   e e e    q   e    q  e  q    e    q        e
|--------------------------------||----------------------------------------|
|--------------------------------||----------------------------------------|
|----------------7-8--9----9-----||----------------------------------------|
|----------------6-7--8----8-----||----------------------------------------|
|-9------9-------7-8--9----9---8-||-----9---11--9-12---12---11--------9----|
|-7----------------------------6-||-7---7----7--7--7----7----7--------7----|
                                  |-Rhy Fig 1

                                         ~~~~~~~~~~                  ~~~~
  W.                     a     +S   S S  E.    +E. S  E S a     +S  +Q      S S  S S  S S
|----------------------|--------------7---------------------------------------7-----------|
|----------------------|------------7---10----(10)-7------------------------7---10-7----7-|
|----------------------|-9b11==(9)r-----------------------9b11==(9)-(9)r--------------9---|
|----------------------|------------------------------------------------------------------|
|----------------------|------------------------------------------------------------------|
|-0--------------------|------------------------------------------------------------------|
|
| Q   e Q  e Q  e Q  e   a      Q           e   Q     e Q                e  Q         e
|----------------------|------------------------------------------------------------------|
|----------------------|------------------------------------------------------------------|
|----------------------|------------------------------------------------------------------|
|----------------------|--------------------9--12-----------------------------------------|
|-----2-2--4-2--2-5--4-|-7s=====9-----------9--11----11-9----------------9-11--------11---|
|-0---0-3--4-0----0----|-6s=====7-----------------------7-------------------7-------------|


                                             ~~~
  Q  E  S S S E     S a     +S   S S S S. T  E S S E
|--------------------------------7----------------------|
|-----------7-7----10------------7----------------------|
|-9-----7h9-----------9b11==(9)r---7-9----7h=9p7--------|
|----9---------------------------------9---------9-7----|
|-------------------------------------------------------|
|-------------------------------------------------------|
|
| Q  e  Q        e           Q         e     Q     e
|-------------------------------------------------------|
|-------------------------------------------------------|
|-------------------------------------------------------|
|--------------------------------------7----------------|
|-9--9-11-------11----------12--------------11-----9----|
|-7-----7--------------------7---------------7----------|


  Q.    Q.    Q.    a E. T T E   H.         +Q.    +Q  E
|---------------------7--------|-------------------------|
|-------------------7h9--7-----|-------------------------|
|--------------------------7---|-------------------------|
|----------------------------9s|=2----------(2)----(2)---|
|------------------------------|-------------------------|
|-0----------------------------|-------------------------|
|
| Q   e Q   e Q   e   Q      e   Q   e Q  e  Q   e  Q  e
|------------------------------|-------------------------|
|------------------------------|-------------------------|
|------------------------------|-------------------------|
|-------------2----------------|-------------------------|
|-----2-----4-2---2---5------4-|-2-----2--4--2------5S=8-|
|-0-----3---4-0---0----------0-|-0---0-3--4--0---0--0--6-|


    ~~             ~~
  a H.           a H.            S S S S S S +e  S S  S S e e e  e e e
|------------------------------|-----------------------------------------|
|------------------------------|-----------------------------------------|
|-2s4------------4s2-----------|---------2s4-(4)-2-----------------------|
|------------------------------|---2-3-4-----------4--3-2-0----------0---|
|------------------------------|-5--------------------------2----x-x-0---|
|------------------------------|-----------------------------------------|
|
|   Q   e  Q   e   Q   e Q   e   Q       e    Q       e   Q   e  Q   e
|------------------------------|-----------------------------------------|
|------------------------------|-----------------------------------------|
|------------------------------|-----------------------------------------|
|------------------------------|-----------------------------------------|
|---9-----11--11---9-----9--11-|-9-------9---11------11---9-----11-------|
|---7---7--7-------7---7-7---7-|-7-------7----7-------7---7---7--7---0---|


  Q.    Q.    +Q   +S  S E S S E   H.         +Q.    +Q   E
|--------------------------------|--------------------------|
|--------------------------------|--------------------------|
|--------------------------------|--------------------------|
|------------------------------4-|--------------------------|
|-4------------------------4h6---|--------------------------|
|-2-----2-----(2)--(2)-4s6-------|-0----------(0)----(0)----|
|
| Q   e Q   e  Q    e    Q     e   Q   e Q  e  Q   e  Q   e
|--------------------------------|--------------------------|
|--------------------------------|--------------------------|
|--------------------------------|--------------------------|
|--------------------------------|--------------------------|
|-4---4-6---6--4----4----6-----4-|-2---2-3--4--2------5---4-|
|-2---2-4------4----4----2-----2-|-0---0-3--4--0---0--------|

[ Tab from: http://www.guitartabs.cc/tabs/h/hendrix_jimi/red_house_tab_ver_2.html ]
                                       ~                                         ~~
  e    +Q     S  S S  S  +e  S S S e   S +e. a    +S    S S   a e. e.    e a e e H.
|-------------2--4-2----------------------------------------|-4s7---------------------------||
|-3b4==(3)---(3)-----(3)r(3)----------------------------7p4-|-4s7--------------7------------||
|--------------------------------4h6---4-(4)-6b8==(6)r------|--------------6s8--------------||
|----------------------------4s6-4h6------------------------|-------------------------------||
|-----------------------------------------------------------|--------------------9----------||
|-----------------------------------------------------------|-------------------------------||
|
| Q        e  Q           e  Q       e    Q             e       Q     e  e   e e Q.   e e e
|-----------------------------------------------------------|-------------------------------||
|-----------------------------------------------------------|-------------------------------||
|-----------------------------------------------------------|--------------------9----9-9---||
|-----------------------------------------------------------|------------------7-8----8-8---||
|-9--------9-11----------11--9-------9---11------------11---|---9-----9-11---9-7-9----9-9-8-||
|-7-----------7--------------7------------7-----------------|---7-----7--7---7------------6-||
                                                                              end Rhy Fig 1-|

 Verse 2
w/Rhy Fig 1
                                       |3| |3|
  Q.    +E  S S T +T  T X X  Q.     a  E S E S E   Q.    Q.    Q.    Q.
|-------------7-------7--------------------------|-------------------------|
|-------------7h9-(9)---7------------------------|-------------------------|
|-------------------------7---------7h=9-7-------|-------------------------|
|----------------------------9-------------9p7h9-|-------------2-----------|
|------------------------------------------------|-------------------------|
|-7-----(7)-0------------------------------------|-0-----0-----------------|


                          ~~~~~~~~~~~
                                                            |--3--|  |-3-|  |-3--|
  a     +S   S S  a      +E.    +Q.      S  S S E.   a     +S   S S  S S S  S S  S
|--------------7-------------------------7----7-------------------7------9--7------|
|------------7---10b12==(10)---(10)r-------10-------------------7---10p7------7h10-|
|-9b11==(9)r-----------------------------------------9b11==(9)r--------------------|
|----------------------------------------------------------------------------------|
|----------------------------------------------------------------------------------|
|----------------------------------------------------------------------------------|


                                                                       ~~
                    |-3--|               |-3--|                    |--4:3--|
   +E       +Q      S  S S a     +S   S  S  S S  a  E  S  S  S  S  e e E   E
|-------------------7--------------------7------10s12-10------------------------|
|-(10)b12==(10)r------10p7------------7----10-7----------12-10------------------|
|--------------------------9b11==(9)r--------------------------11-10-9-7p==0----|
|-------------------------------------------------------------------------------|
|-------------------------------------------------------------------------------|
|-------------------------------------------------------------------------------|


  Q.    Q.    Q.    a e e e   H.         Q.    +Q   e
|---------------------------|-------------------------|
|-----------------------5s3-|-------------------------|
|---------------------------|-------------------------|
|-------------------4s6-----|-------------------------|
|---------------------------|-------------------------|
|-0-----0-----0-------------|-0----------0-----(0)----|


                                                                    ~~~~
  a     Q    E a    +S   S a      S   S      +S   S     +Q    a    +E   E a    +S  +T  T  E
|------------7-----------7------------7-----------7-----(7)---------------------------------|
|-------7----7-----------7--------7-------------------------------------7-------------------|
|-9b11=(9)r----9b11=(9)r---9b11==(9)r(9)b11==(9)r(9)b11=(9)r--9b11=(9)r---9b11=(9)r(9)p7----|
|-----------------------------------------------------------------------------------------9-|
|-------------------------------------------------------------------------------------------|
|-------------------------------------------------------------------------------------------|


  ~~           ~~~~~~~~~
         |-3-|
  Q.     S S S Q    +Q   e  Q.
|---------------------------------|
|---------------------------------|
|-7-------------------------------|
|--------9p7---7----(7)-----------|
|------------9--------------------|
|------------------------x--------|


  H.         Q.    a  e e S S   Q.    +e  Q   H.
|------------------9s11s9s6s9s|=7-----(7)----------------|
|-----------------------------|--------------------------|
|------------------9s11s9s6s9s|=7-----(7)----------------|
|-----------------------------|--------------------------|
|-----------------------------|--------------------------|
|-----------------------------|--------------------------|


            ~~~~~~~~~~
  E. a     +E.   +E.  S  S  S S a     +S   S S S S  S E S  T T T T
|------------------------7-----------------------------------------|
|---------------------7----10-7------------7---7-------------------|
|----9b11==(9)---(9)r-----------9b11==(9)r---7------7s9s7----------|
|------------------------------------------------9---------9p7-----|
|--------------------------------------------------------------9p7-|
|------------------------------------------------------------------|

                               Guitar Solo
                              w/Rhy Fig 1
                           ~~                               ~~~~~~~
  H.           Q.    E  e  E     Q   e  a      +Q.       S  S  +Q      S      +S   E  S S
|----------------------------||-----10-12b14==(12)r-----10------------10b12==(10)r--------|
|----------------------12-12-||-12-------------------------12-(12)------------------------|
|-------------------11-------||-----------------------------------------------------------|
|----------------------------||------------------------------------------------------/x---|
|----------------------------||-----------------------------------------------------------|
|----------------------------||-----------------------------------------------------------|


                                                          |--3--|     |--3--|
  E  S  S  E  a      +Q    E  S  S  E  S  S  a      +E    T  T  T  S  T  T  T  S
|------------14b16==(14)r----14-12-14-10-12-12b14==(12)r-10h12p10----10h12p10----|
|---------12------------------------------------------------------12----------12-|
|---11s13------------------------------------------------------------------------|
|--------------------------------------------------------------------------------|
|--------------------------------------------------------------------------------|
|--------------------------------------------------------------------------------|


   |--3--|                     |--3--|                   |-3--|
   T  T  T  S  E  E      +E    S  S  S  S  S      +E.  S T  T T S  S S a S E.
|-10h12p10----10-12b14==(12)r-10h12p10-----------------7-------------------------|
|----------12--------------------------12-10b12==(10)r-7-7h10p7------------------|
|---------------------------------------------------------------9--7---7h8-------|
|--------------------------------------------------------------------9-----------|
|--------------------------------------------------------------------------------|
|--------------------------------------------------------------------------------|


  Q.    a     +S   S T  T S  T T S  T T S  T T S  T T S  T T S  T T S  T T S
|--------------------7-------9p7---10p7---10p7---10p7---10p7---10p7---10p7---|
|------------------7---10p7------7------7------7------7------7------7------7-|
|-------9b11==(9)r-----------------------------------------------------------|
|----------------------------------------------------------------------------|
|----------------------------------------------------------------------------|
|----------------------------------------------------------------------------|


   T T S  T T S  T T S  T T S  T T S  T T S  T T S  T T S  T T S  T T S  T T S  a      +E
|-10p7---10p7---10p7---10p7---10p7---10p7---10p7---10p7---10p7---10p7---10p7---10b12==(10)-|
|------7------7------7------7------7------7------7------7------7------7------7-------------|
|------------------------------------------------------------------------------------------|
|------------------------------------------------------------------------------------------|
|------------------------------------------------------------------------------------------|
|------------------------------------------------------------------------------------------|


                                                                             |-3-|
   +E    S S S S  S S  E.       +S   S  S S a     +S   S S  S S a     +S   S S S S
|-(10)r-10-7-9p7----7----------------7-------------------7-------------------------|
|----------------10---10b12====(10)r---10-7------------7---10p7------------7-------|
|-------------------------------------------9b11==(9)r----------9b11==(9)r---9p7---|
|--------------------------------------------------------------------------------9-|
|----------------------------------------------------------------------------------|
|----------------------------------------------------------------------------------|


      ~
                 |--3--|                                               |-3--|  |3|
  S S Q   a     +S   S S  S S  T T S  a      +E.   S S S  S S  a      +E    S  E S
|----------------------7----7--9p7---10b12==(10)r-10-7------7-10b12==(10)r-10--7----|
|-9------------------7---10-7------7-------------------7-10-7--------------------7--|
|-9---7---9b11==(9)r----------------------------------------------------------------|
|---9-------------------------------------------------------------------------------|
|-----------------------------------------------------------------------------------|
|-----------------------------------------------------------------------------------|


           |-3--| |3|               |-3-|
   a      +e    S e S  a      +e    S S S e.     a  S  +e   e  e  e  e  e
|-10b12==(10)r-10-7---10b12==(10)r-10-7--------------------14-14-14-14----|
|-------------------7-------------------7-------15s17-(17)-------------14-|
|-------------------------------------------------------------------------|
|-------------------------------------------------------------------------|
|-------------------------------------------------------------------------|
|-------------------------------------------------------------------------|


   a      +E.  +S   E  S  S  S  S  T  T  S      +E.   S  S  T  T  S  S      +S   +S    E
|-17b19==(17)r(17)-14-14h17p14----17p14--------------------------------------------------|
|------------------------------17-------17b19==(17)r-17-15-17p15----15b16==(15)-(15)r\---|
|----------------------------------------------------------------16----------------------|
|----------------------------------------------------------------------------------------|
|----------------------------------------------------------------------------------------|
|----------------------------------------------------------------------------------------|


  S a S S S  a  e  S  S  S s  e  a      +e    e  a      +e    e e  a      +e


|---------7-------10------------14b17==(14)r-14-14b17==(14)r-14---14b17==(14)r-|
|-------7---10s12----12p10---12-14b17==(14)r-----------------------------------|
|---6s8--------------------x---------------------------------------------------|
|------------------------------------------------------------------------------|
|------------------------------------------------------------------------------|
|------------------------------------------------------------------------------|


   ~~                                         ~~
   E  S  S S  a      +S    E a S S  e  a  S E E.   a     +S   S S  S  S S
|-14-12-14--------------------------7-14s19---------------------7-----7---|
|------------15b16==(15)r--------7----------------------------7---10--7---|
|----------------------------6s8--------------7----9b11==(9)r-----------7-|
|-------------------------------------------------------------------------|
|-------------------------------------------------------------------------|
|-------------------------------------------------------------------------|


  S S +Q     e a S T T S S +e  e e e e e
|----------------7-----------------------||
|--------------7h9-7-----------------9-9-||
|--------------------7---------9-9-------||
|-9--------------------9-----------------||
|---9-(9)----------------9-(9)-----x-----||
|----------------------------------------||


 Verse 3
w/Rhy Fig 1
                         |--3---|
  H.            Q   S S  S   S  S  Q      a E E E +Q.    +Q   E Q.
|---------------------------------------|-7s9s7------------------------|
|---------------------x-(7)s(9)-9s=7----|------------------------------|
|---------------------x-----------------|-7s9s7-7-(7)----(7)-----------|
|---------------------x--7s==9--9s(7)---|------------------------------|
|---------------------------------------|------------------------------|
|---------------------------------------|------------------------------|


                             ~~~
                        |3|
  S S S S S S  S S S S  e S +Q   E  Q   E
|-7------------------------------------(0)-|
|-7h9-7------------------------------------|
|-------9-7h8------------------------------|
|--------------9-7-------------------------|
|------------------9-8--7-5-(5)------------|
|------------------------------------------|


                                   ~~~~~~~~~~                        ~~~~~~
  a     +S   S S  T T e +e  S S  e Q.    +e  Q     H.         a  e e e +Q    e
|--------------7---------------------------------|--------------------------------|
|------------7---10p7----------------------------|--------------------------------|
|-9b11==(9)r----------7-(7)----------------------|-----------------9s7-(7)--------|
|---------------------------9p7----7-----(7)-----|--------------------------------|
|--------------------------------9---------------|------------9s11----------11\---|
|------------------------------------------------|--------------------------------|


                           TP TP   TP      TP
  Q  E Q.    Q.    Q  E    E  Q    Q.      H.
|---------------------0-|----11---11------11-----------|
|-----------------------|-10-10---10------10-----------|
|-----------------------|-11-11---11------11-----------|
|-----------------------|------------------------------|
|-----------------------|------------------------------|
|-0---------------------|------------------------------|


        TP
                                         |-3-|  |----3-----|
   S S  Q    S  S S  S  S S  E  S S E a  S S S  S S a     +S  +T  T S
|------11---11-------------------------------7-------------------------|
|------10---10---------10---10\------------7---10p7--------------------|
|-11p9-11---11-11s9s11-11s9-11\-9p7---7h=8----------9b11==(9)r(9)p7----|
|-----------------------------------9-------------------------------9--|
|----------------------------------------------------------------------|
|----------------------------------------------------------------------|


  H.         +Q.    e e e   e  e  e Q.   H.
|-------------------------|----------------------|
|-------------------------|----------------------|
|-------------------9-9-9-|----------------------|
|-------------------8-8-8-|-9-(9)----------------|
|-9----------(9)----9-----|-7-(7)----------------|
|-------------------------|----------------------|
|
| Q   e Q  e  Q   e Q   e   e  Q    Q.   H.
|-------------------------|----------------------|
|-------------------------|----------------------|
|-------------------------|----------------------|
|-------------------------|----------------------|
|-4---4-6--6--4---4-6---4-|-2--------------------|
|-2---2-2-----2---2-2---2-|-0--------------------|


  a      Q    e e e e e. S a     +e   S T T e   e
|---------------7-9-7----7-9b11==(9)r-7h9p7-----7---|
|--------7------------9---------------------9-------|
|-9b11==(9)r----------------------------------------|
|---------------------------------------------------|
|---------------------------------------------------|
|---------------------------------------------------|
|
|        Q    e Q   e Q           e   Q       a e
|---------------------------------------------------|
|---------------------------------------------------|
|---------------------------------------------------|
|---------------------------------------------------|
|--------9------6---6-7-----------7---8-------8h9---|
|--------7----7-------------------------------------|


  a     +e   e e Q  e +Q.   a e. T T S a S
|-9b12==(9)r------------------7--7---------|
|---------------------------7h9----7-------|
|----------------9--8-(8)------------9-7h8-|
|----------------8--7-(7)------------------|
|------------------------------------------|
|--------------0---------------------------|
|
|        E   Q   Q  E +H.
|------------------------------------------|
|------------------------------------------|
|------------------------------------------|
|--------9---------------------------------|
|--------9-------8--9-(9)------------------|
|----------------6--7-(7)------------------|


                      ~~~~~~~~~~~~~~
                                               |-3-|
  +S  S S S E S S Q  +H.        +E   Q    E  E S S S H.
|-----------------------------|----------------x-----------*|
|-----------------------------|------0----0------x---------*|
|-(8)-------------------------|--------------0-----x-------*|
|-----9p7---7-----------------|----------------------------*|
|---------9---9p7s5--(5)------|-(5)-(5)--(5)---------------*|
|-----------------------------|----------------------------*|
|
| +W.                           +H.                  H.
|-----------------------------|----------------------------*|
|-----------------------------|----------------------------*|
|-----------------------------|----------------------------*|
|-----------------------------|----------------------------*|
|-(9)-------------------------|-(9)------------------------*|
|-(7)-------------------------|-(7)------------------------*|
Comments