Hendrix Jimi - Purple Haze Chords & Tabs

 

Purple Haze Chords & Tabs

Hendrix Jimi Chords & Tabs

Version: 9 Type: Tab 10 ratings
1 star 2 stars 3 stars 4 stars 5 stars
comments

Purple Haze Tab

/ slide
^ single bend
^^ double bend
HO hammer on where . is
PO pull off where * is

Intro chords
1|--------------------------------------------------|--------------------------------------------------|
2|--------------------------------------------------|--------------------------------------------------|
3|--------------------------------------------------|--------------------------------------------------|
4|------8-----8-----8-------------------------------|--------------------------------------------------|
5|---7--7--7--7--7--7-------------------------------|--------------------------------------------------|
6|---6-----6-----6----------------------------------|--------------------------------------------------|

intro riff
1|--------------------------------------------------|--------------------------------------------------|
2|-------------8------------------------------------|--------------------------------------------------|
3|----------7---------------------------------------|--------------------------------------------------|
4|----7/9--------7---3/5-------------------X2-------|--------5--7--7^^(9)--5---3/5---------------------|
5|-------------------------5-----5/7----------------|---5/7------------------------5-------------------|
6|----------------------------0---------------------|---------------------------------0--1/3-----------|

1|--------------------------------------------------|--------------------------------------------------|
2|--------------------------------------------------|--------------------------------------------------|
3|---------------------------------7-7-7/9----------|--------------------------------------------------|
4|-------5---7--7^(8)-7--7--5-7/9-------------------|--------------------------------------------------|
5|--5/7---------------------------------------------|--------------------------------------------------|
6|--------------------------------------------------|--------------------------------------------------|

verse
          down  up     down
1|--------------------------------------------------|--------------------------------------------------|
2|----------8---8--------8--------------------------|--------------------------------------------------|
3|----------7---7--------7--------------------------|--------------------------------------------------| X5
4|----------6---6--------6--------------------------|----5-5-5-5--7-7-7-7------------------------------|
5|----------7---7--------7--------------------------|----5-5-5-5--7-7-7-7------------------------------|
6|-----0-0-----------0-0----------------------------|----3-3-3-3--5-5-5-5------------------------------|

Then the E chord! hold it for a while for best effect
1|--------------------------------------------------|
2|--------------------------------------------------|
3|---9----------------------------------------------|
4|---9----------------------------------------------|
5|---7----------------------------------------------|
6|--------------------------------------------------|


just play the bridge here not the extended bit that comes later
[ Tab from: http://www.guitartabs.cc/tabs/h/hendrix_jimi/purple_haze_tab_ver_9.html ]
Bridge							Extended
1|--------------------------------------------------|--------------------------------------------------|
2|--------------------------8^(9)---------8^(9)-----|-----------12^^(14)----------12^^(14)-------------|
3|----------------------7--------------7-------X1---|--------9-----------------9-----------------X1----|
4|----------------7/9-------------7/9---------------|--9/11--------------9/11--------------------------|
5|--7/9----7--5-------------------------------------|--------------------------------------------------|
6|--------------------------------------------------|--------------------------------------------------|

1|---------------15^(16)-----------15^(16)----------|--------------------------------------------------|
2|--------------------------------------------------|----------------15--------------------------------|
3|----------12-------------------12------------X1---|------14^^(16)--------X4--------------------------|
4|---12/14---------------12/14----------------------|--------------------------------------------------|
5|--------------------------------------------------|--------------------------------------------------|
6|--------------------------------------------------|--------------------------------------------------|

Verse X3 and E chord

Bridge And Extended (see i told you)

Solo
      HO     HO               HO PO    HO		       HO PO 		  HO PO
1|--------------------------------------------------|--------------------------------------------------|
2|--12.14---12.14---12/10----10.12*10/9.10---9/7----|--------------------------------------------------|
3|--------------------------------------------------|--------12.14*12------12---12.12*11----9/7--------|
4|--------------------------------------------------|--/14-------------14------------------------------|
5|--------------------------------------------------|--------------------------------------------------|
6|--------------------------------------------------|--------------------------------------------------|

    HO PO  HO						 HO PO
1|--------------------------------------------------|--------------------------------------------------|
2|--------------------------------------------------|--------------------------------------------------|
3|--7.9*7/6.7---------------------------------------|--------------------------------------------------|
4|------------------------------9--11---------------|----9.11*9/7--9/11---7---11--7--11--7--11--7------|
5|------------------------9/11----------------------|--------------------------------------------------|
6|--------------------------------------------------|--------------------------------------------------|

			      HO			HO PO   HO PO
1|----------------------14---12.14--12--10----------|--10.12*10/9.10*9/7-------------------10----------|
2|--------------------------------------------------|----------------------10---10^^(12)------10^^(12)-|
3|-----------11--12---------------------------------|--------------------------------------------------|
4|--12--14------------------------------------------|--------------------------------------------------|
5|--------------------------------------------------|--------------------------------------------------|
6|--------------------------------------------------|--------------------------------------------------|


Intro Riff

Verse X3 then E chord

Bridge and extended

Outro First part of intro Riff but X4
Comments