Hendrix Jimi - Purple Haze Chords & Tabs

 

Purple Haze Chords & Tabs

Hendrix Jimi Chords & Tabs

Version: 7 Type: Tab 10 ratings
1 star 2 stars 3 stars 4 stars 5 stars
comments

Purple Haze Tab

   
INTRO:
|-----------------|----------------|--------------|----------------|---------------|
|-----------------|------8b--------|--------------|------8b--------|---------------|
|-----------------|----7-----------|--------------|----7-----------|---------------|
|---8---8---8---8-|-/9------7----7-|\5------------|-/9------7----7-|-\5------------|
|-----------------|----------------|---5---5/7----|----------------|----5---5/7----|
|-6---6---6---6---|----------------|-----0--------|----------------|------0--------|

|--------------|--------------|--------------------|---------------|---------------|
|--------------|--------------|--------------------|---------------|---------------|
|--------------|--------------|--------------------|--------7-7-9--|-0-------------|
|-----5-7-7b-5-|-5------------|-----5-7b--5h7--(7)-|-5---/9--------|---------------|
|-5/7----------|---0---3---0--|-5/7----------------|---5-----------|---------------|
|--------------|-----0--------|--------------------|---------------|------15\------|

PRE-VERSE RIFF:
-------------------------------3--33------5--55------7---77-------------
--- 8---x-x-x-x-----8--88------3--33------5--55------7---77-------------
--- 7---x-x-x-x-----7--77------4--44------6--66------8---88-------------
--- 6---x-x-x-x-----6--66------5--55------7--77------9---99-------------x3
--- 7---x-x-x-x-----7--77------5--55------7--77---- -9 --99--------------
-00-------------00----------33-3--33--55--5--55--77--7-- 77 --------------
  E7#9                                                

                      E7#9                          
|------------------|-----------------------------|---
|------8b-------8b-|------8-----8----xxxxx---|--------
|----7--------7----|------7-----7----xxxxx----|------
|-/9-------/9------|------6-----6----xxxxx----|--                   repeat pre verse
|------------------|------7-----7----xxxxx---|--
|------------------|--0------------------------0
                           Purple Haze              

  E7#9                                 G                  A
|-----------------------------------|-----------------------------------------------|
|--------8--------------------------|-----------3---------------5---5---5---5---5---|
|--------7--------------------------|-----------4---------------6---6---6---6---6---|
|--------6--------------------------|-----------5---------------7---7---7---7---7---|
|--------7---------5h7-5------------|-----------------------------------------------|
|--0----------5h7---------7--6--5---|--3----3---3----3----5-----5-------5-----------|
   don't know  if   I'm    com - in'    up   or  down.

   E7#9                             G                     A                            E5
|--------------------------------|--------------------------------------------------|-----------------------|
|-----8-----8--------------------|--------------3---------5-----5---5---7-p-5---5---|-----------------------|
|-----7-----7--------------------|--------------4---------6-----6---6---6-------6---|-----------------------|
|-----6-----6--------5-----------|--------------5---------7-----7---7---7-------7---|-----------------------|
|-----7-----7-----5----7-5-------|--------------------------------------------------|-----------------------|
|--0------------7----------7-6-5-|--3------3----3----3----5-----5-------5-------5---|--0--------------------|
       Am  I  hap - py      or      in  mis - er - y?                          Whatever it...girl put a..me.

FILL ONE:Guitar Solo One(w/Octavia):
                                       A                                B
|-------------|---------------------|------------------------------|-------------15---------------15-------12-|
|-------------|------8bb------8\(0)-|-----------12B------------12B-|------------------------------------------|
|-9/11--9---7-|----7--------7-------|-------9--------------9-------|--------12----------------12--------------|
|-------------|-/9-------/9---------|-/11------------/11-----------|---/14---------------/14------------------|
|-7/9---7---5-|---------------------|------------------------------|------------------------------------------|
|-------------|---------------------|------------------------------|------------------------------------------|
                                              Help me!                           Help me!

  D                                               E7#9
|-----------------------------------------------|-----------------------------------------------------|
|------------15----------15--15-----15-----15---|-----------------------------------------------------|
|---14B---------14b----------14B----14B----14B--|-16--16-h-18-18-h-18-p-16--16\14----14h16p14---14\13-|
|-----------------------------------------------|-----------------------------------------------------|
|-----------------------------------------------|-----------------------------------------------------|
|-----------------------------------------------|-----------------------------------------------------|
        Oh,       no,            no!

  F#5                  D5                             E7#9
|----------------------------------------------------|---------------------------------------------------|
|----------------------X-----------------------------|---------------------------------------------------|
|-13/14--------14B-----X----------12---14--12--------|-12---------------11/12\11--11---------------------|
|-----------------------------14---------------14----|------------------------------------14-----12------|
|----------------------------------------------------|---------------------------------------------------|
|----------------------------------------------------|---------------------------------------------------|

  F#5                     D5                     E7#9
|-----------------------------------------------|------------------------------------------------------|
|-----------------------------------------------|------------------------------------------------------|
|-----------------------------------------------|------------------------------------------------------|
|-12--14--12---11--12-----------------14---16---|-(16)----14h16p14\12--12/14--14----14/16---12---------|
|-----------------------------14/16-------------|------------------------------------------------------|
|-----------------------------------------------|------------------------------------------------------|

  F#5                          D5                   E7#9
|--------------------------------------------------|---------------14-------12h14p12------12-----------|
|-----------------------------------17\------------|---------------------------------15-------14h15p14-|
|--------------------------------------------------|-11---12-------------------------------------------|
|-16--12--16--12--16-----12-------------12---14----|---------------------------------------------------|
|--------------------------------------------------|---------------------------------------------------|
|--------------------------------------------------|---------------------------------------------------|

  F#5                                       E5
|----------------------------------------||----------------|------------|-------------|---------------------|
|-14---12B---12h14p12--------15----------||------8b--------|------------|------8b-----|---------------------|
|---------------------14B---------14B----||----7-----------|------------|----7--------|---------------------|
|----------------------------------------||-/9------7--(7)\|/5----------|-/9------7---|-(7)\/5-----5/7---0--|
|----------------------------------------||----------------|---5---5/7--|-------------|--------5------------|
|----------------------------------------||----------------|-----0------|-------------|----------0----------|
                                                 Oh,               ah!         oo,                 ah!

|--------------------------------|---------------------------|-------------------|------------------||
|--------------------------------|---------------------------|------8b-----------|------------------||
|--------------------------------|-----------------------(0)-|----7--------------|----------------X-||
|-----5h7-7b--7B--------5--------|-5h7--7-7B---7p5-----------|-/9------7-----(7)\|/5--------------X-||
|-/7-----------------------7-----|---------------------------|-------------------|---5---5/7------X-||
|--------------------------------|------------------3--------|-------------------|-----0--------0---||
                Oo,                                ah!                Oo,                ah!  Yeah!

VERSE:
  E7#9                                G                 A                          E7#9
|----------------------------------|---------------------------------------------|--------------------------|
|-------8---8-----8---8---8----X\--|------3--3--3---3-/-5----5---5---7---5-------|----8--8----8-8--8---8----|
|-------7---7-----7---7---7----X\--|------4--4--4---4-/-6----6-------6-------6---|----7--7----7-7--7---7----|
|-------6---6-----6---6---6--------|------5--5--5---5-/-7----7-------------------|----6--6----6-6--6---6----|
|-------7---7-----7---7---7--------|---------------------------------------------|----7--7----7-7--7---7----|
|--0-------------------------------|--3---3--3--3---3-/-5----5-------------------|-0----------------------0-|
       Pur-ple Haze             all  in   my   eyes,            uh,                 don't know   if it's
[ Tab from: http://www.guitartabs.cc/tabs/h/hendrix_jimi/purple_haze_tab_ver_7.html ]
   G                  A                             E7#9
|------------------------------------------------|----------------------------------------------|
|------3----3----3-/--5-----5---7---7-p-5-----0--|---------8------8---8----8---8----------------|
|------4----4----4-/--6-----6---6---6-------6----|---------7------7---7----7---7----------------|
|------5----5----5-/-----------------------------|---------6------6---6----6---6------6---------|
|------------------------------------------------|---------7------7---7----7---7-----------7\---|
|--3---3----3----3-/--5--------------------------|--0-------------------------------------------|
  day   or night.                                      you   got   me   blow  -  in',

   G                                              E5
|-----------------------------------------------|-----------------------------------|----------|
|--3---3----3------------5------8\7---------5---|-----------------------------------|----------|
|--4---4----4------------6------6---------------|-----------------------------------|-9/11-9-7-|
|--5---5----5------------7------7---------------|-----------------------------------|----------|
|-----------------------------------------------|-----------------------------------|-7/9--7-5-|
|--3---3----3------------5----------------------|-0---------------------------------|----------|
  blow-in' my  mind.                   is it       tommorow, or just the end of time?

                             FILL 2:Solo Two(Two guitars)
                              A(sus2)                           B
|---------------------------|-------------------------------|----------------------------------|
|------8bb-------8bb---(8)\-|-------------------------------|----------------------------------|
|----7---------7------------|-------------------------12----|---(12)-----------------9----12---|
|-/9--------/9--------------|--------------------12---------|-----------------/11--------------|
|---------------------------|-------------/14---------------|----------------------------------|
|---------------------------|-------------------------------|----------------------------------|
|Gtr.I
|---------------------------|-----------0----0---0----------|-----------0----0------------0----|
|---------------------------|-----------0----0---0----------|-----------0----0---0---0----0----|
|---------------------------|---2-------2----2---2----2/4---|-----------4----4---4---4----4----|
|---------------------------|---2------------2---2----2-----|----------------------------------|
|---------------------------|---0---------------------0/2---|-----------2----2---2---2----2----|
|---------------------------|---0---------------------------|----0---------------0---0---------|
 Gtr.II                              Ooh,                             help me,

      D                          D#         E7#9
|-----------------------------------------|----------------------------------|
|---------------12--14-15--14-12h14p12----|-------------15B----15--15--15-15-|
|----(12)------------------------------14-|-----12---------------------------|
|-----------------------------------------|----------------------------------|
|-----------------------------------------|----------------------------------|
|-----------------------------------------|----------------------------------|
|Gtr.I
|-----------------------------------------|-----------------------------------|
|------7------7----7----7---7-----8----8--|-------------8------8--------------|
|------7------7----7----7---7-----8----8--|-------------7------7--------------|
|------7------7----7----7---7-----8----8--|-------------6------6---9--9--9h11-|
|------5------5----5----5---5-----6----6--|-------------7------7---7--7-------|
|------0------0----0----------------------|-----0------------------0--0-------|
 Gtr.II     ahh,              yeah,                    Pur-ple  Haze,   Yeah.

   F#5             D5                 E7#9
|----------------------------------|-----------------------------------------|
|--15---15-15-15-15-15-15-15--15B--|--15--15--15--15--15---15---15---15---15-|
|----------------------------------|-----------------------------------------|
|----------------------------------|-----------------------------------------|
|----------------------------------|-----------------------------------------|
|----------------------------------|-----------------------------------------|
|Gtr.I                                   (pick randomly)
|----------------------------------|-----------------------------------------|
|----------------------------------|-----------------------------------------|
|----0-------0----7---7----6---6---|-----\\\\\\\\\\\\\\\---------------------|
|-------0----0---------------------|----2-\\\\\\\\\\\\\\\-0------------------|
|-----------------5---5----4---4---|-----------------------------------------|
|----------------------------------|-----------------------------------------|
 Gtr.II              Oh,     no,        no,                          oh,

   F#5             D5                 E7#9
|----------------------------------|----------------------------------|
|--15---15--15-15-15-15--15--15-15-|--15---15-15-15-15-15-15-15--15---|
|----------------------------------|----------------------------------|
|----------------------------------|----------------------------------|
|----------------------------------|----------------------------------|
|----------------------------------|----------------------------------|
|Gtr.I
|----------------------------------|----------------------------------|
|----------------------------------|----------------------------------|
|-----\\\\\\\\\\\\\\\--------------|------\\\\\\\\\\\\\\\\\\----------|
|-----2\\\\\\\\\\\\\\\0------------|------2\\\\\\\\\\\\\\\\\\0--------|
|----------------------------------|----------------------------------|
|----------------------------------|----------------------------------|
 Gtr.II    help me.             tell me  ba - by, tell  me!
                                                  Pur-ple Haze...

   F#5                  D5                  E7#9
|-----------------------------------------|----------------------------------------------------|
|--15--15--15--15--15---15---15---15---15-|----15----15---15-15-15------15B-----15^(20)-15^(18-|
|-----------------------------------------|----------------------------------------------------|
|-----------------------------------------|----------------------------------------------------|
|-----------------------------------------|----------------------------------------------------|
|-----------------------------------------|----------------------------------------------------|
|Gtr.I                                       You're  mak-in'  me         blow   my   mind...
|-----------------------------------------|(End of Gtr.II Part)     Pur  -  ple    Haze...
|-----------------------------------------|
|-----\\\\\\\\\\\\\\\\\\\\----------------|
|----2-\\\\\\\\\\\\\\\\\\\\0--------------|
|-----------------------------------------|
|-----------------------------------------|
Gtr.II
   I can't go on like this...

    F#5                       D5                          E7#9
|-----------------------------------------------------|-----------------------------------------------------|
|---15B----15^(18)---15---15--15--15--15B-15^(18)-15B-|----15B---15---15----15----15----15----15----15---15-|
|-----------------------------------------------------|-----------------------------------------------------|
|-----------------------------------------------------|-----------------------------------------------------|
|-----------------------------------------------------|-----------------------------------------------------|
|-----------------------------------------------------|-----------------------------------------------------|
                                      ma-ma...             no,        no....                    no...
                                                                      Pur  -  ple   Haze...

    F#5                             D5                    E7#9
|-----------------------------------------------------|-----------------------------------------------------|
|-15---15---15---15---15---15---15---15---15---15--15-|----15^(18)----------15B---15----15----15----15---15-|
|-----------------------------------------------------|-----------------------------------------------------|
|-----------------------------------------------------|-----------------------------------------------------|
|-----------------------------------------------------|-----------------------------------------------------|
|-----------------------------------------------------|-----------------------------------------------------|
                                           no,                     it's     pain      -       ful, ba - by...
                                                                       Pur - ple  Haze...

    F#5                        D5                         E7#9
|-----------------------------------------------------|-----------------------------------------------------|
|-15---15---15---15---15---15---15---15---15---15--15-|----15---15---15-----15----15----15----15----15---15-|
|-----------------------------------------------------|-----------------------------------------------------|
|-----------------------------------------------------|-----------------------------------------------------|
|-----------------------------------------------------|-----------------------------------------------------|
|-----------------------------------------------------|-----------------------------------------------------|
                                                                   Pur  -  ple  Haze...
    F#5                        D5
|-----------------------------------------------------||
|-15---15---15---15---15---15---15---15---15---15--15-||
|-----------------------------------------------------||(Fade Out.)
|-----------------------------------------------------||
Comments