Hendrix Jimi - Purple Haze Chords & Tabs

 

Purple Haze Chords & Tabs

Hendrix Jimi Chords & Tabs

Version: 2 Type: Tab 1 rating
1 star 2 stars 3 stars 4 stars 5 stars
comments

Purple Haze Tab

   
heres jimi hendrix's correct version of purple haze. I got it out of a 
jimi hendrix tab book. I give credits to richard daniels the 
illistrator. have any questions, want more songs, or have comments
email me at liverlips87@yahoo.com or arai87@yahoo.com.

~amber w.


h-hammer on
u-slide up
v-vibrato
b-bend
 
standard tunning
chords~ E augmented 9th, G major, and A major.
total time of song:2:43

LEAD BREAK
opening 4 sec-22 sec

E----------------------------------------------------------------------
B-----8-----------------8----------------------------------------------
G---7-----------------7------------------------------------------------
D-9----7-5---------u9-----7-5----------5-7-u9-v5----------5-7-u9-7-----
A-----------5-7-7-------------5-7-7-7-------------------7--------------
E------------------------------------------------5-0-3-----------------
                after spell on me (slide with ring finger and bend with pinky on bends here)
E------------------------------------------9--------9------15b------15b-
B----------------------------8-----8------------------------------------
G--------7-7b--------------7-----7-------9-------9------11-------11-----
D-5---u9----------4-2-0-u9----u9-----u11-----u11----u13------u13--------
A---5-------------------------------------------------------------------
E-----------------------------------------------------------------------
[ Tab from: http://www.guitartabs.cc/tabs/h/hendrix_jimi/purple_haze_tab_ver_2.html ]
E-----10-----10-----10-------------------------------------------------
B-11b----11b----11b-----14h--14h-12----12-----------12-----------------
G-----------------------------------14-----14-13-14-----------12-14-12-
D------------------------------------------------------12--14----------
A---------------------------------------------------------------------
E---------------------------------------------------------------------

E---------------------------------------------------------------------
B---------------------------------------------------------------------
G-12-11-9----9----------------9-11-9----9-11----11----11-----11----11-
D---------12---12--11--12--12--------12------12----12----12-----12----
A---------------------------------------------------------------------
E---------------------------------------------------------------------

E---------------------------------------------------------------------
B---------------------------------------------------------------------
G-9--11h--11--12h--11--9--11h--9--------------------------------------
D---------------------------------12--11--12--11--9-11-9---------12---
A--------------------------------------------------------12u-14----14-
E---------------------------------------------------------------------


LYRICS~

Purple haze all in my brain,
lately things dont seem the same.
acting funny but i dont know why,
scuse me while i kiss the sky.

purple haze all around
dont know if im coming up or down.
am i happy or in misery
what ever it is, that girl put a spell on me.

purple haze was in my eyes,
dont know if its day or night.
you've got me blowing, blowing my mind,
is it tomorrow or just the end of time?

Comments