Hendrix Jimi - Purple Haze Chords & Tabs

 

Purple Haze Chords & Tabs

Hendrix Jimi Chords & Tabs

Version: 1 Type: Tab 3 ratings
1 star 2 stars 3 stars 4 stars 5 stars
comments

Purple Haze Tab

Artist: Jimi Hendrix 
Song: Purple Haze
Album: Experience Hendrix
Tabbed: Kevin
Tuning: Standard 

H=hammer on
/=slide up

 Intro (Distortion)
E|-------------------------------------------------------
B|------------------------------8--------------------8---
G|----------------------------7--------------------7-----
D|----8-----8-----8-----8--/9-----7---5-0--2-2---9-------
A|-7--7--7--7--7--7--7--7--------------------------------
E|-6-----6-----6-----6-----------------------------------

[ Tab from: http://www.guitartabs.cc/tabs/h/hendrix_jimi/purple_haze_tab.html ]
  ----------------|---------------------------------------
  ----------------|---------------------------------------
  ----------------|---0--2/4--2--0--0---------0-2—2h4—0h2-
  -5-0--2-2-------|-0-----------------------0-------------
  ----------------|-------------------0-------------------
  ----------------|---------------------0/3---------------

                x5
  -------------|-----------------------------|
  -------------|----8-8-8-8-8----------------|
  -0-----7-7h9-|----7-7-7-7-7----------------|
  ---0/9-------|----6-6-6-6-6---5-5--7-7-----|
  -------------|----7-7-7-7-7---5-5--7-7-----|
  -------------|-0--------------3-3--5-5-----|
                Purple Haze are in my brain...
               (Listen to song for the strumming pattern)
 |--------------------------|
 |--------------8------8----|
 |------------7------7------| 
 |----------9------9--------|
 |-9--7--5------------------|          
 |--------------------------|
 Excuse me while I kiss the sky! 

This song absolutely rules Jimi is so cool, 
I wish I knew the solos and stuff but this is all I know, 
right now, enjoy!
Comments