Hendrix Jimi - Pali Gap Chords & Tabs

 

Pali Gap Chords & Tabs

Hendrix Jimi Chords & Tabs

Version: 1 Type: Tab 0 ratings
1 star 2 stars 3 stars 4 stars 5 stars
comments

Pali Gap Tab

   
SONG: Pali Gap(Instrumental Solo)
ARTIST: Jimi Hendrix
KEY: G Major:(G;Am;Bm;C;D;Em;F#m;G)
NOTE: There are some solos that you will have to figure out for yourself...just improvise for now in Em Pentatonic....if you don't know that key...just email me at schlnich@hotmail.com
 	-Nicholas

INTRO:Bass/Guitar
  Em
  q.e e q e   e e e e  e e e
|-----------|----------------||
|-----------|-----0----------||(bassline is repeated throughout the song)
|---------0-|-2-2---2--2-0---||
|-0-3-3-3---|--------------3-||
[ Tab from: http://www.guitartabs.cc/tabs/h/hendrix_jimi/pali_gap_tab.html ]
  Em
  e   q.s s   s s e e s s e e   e q.  e e e e e   e e e e e e s s s e   s s   e e s s e e e e
|---|-2-0---|-0-2-5-7-5-2-0-2-|-----|---------2-|-----0-2-2-7-2-0-----|---0-|-2-7-5-2-0-------
|-0-|-----3-|-----------------|-3-0-|-----0-3---|-3-3-------------3-0-|-3---|-----------3-0-1-
|---|-------|-----------------|-----|---2-------|---------------------|-----|-----------------
|---|-------|-----------------|-----|-4---------|---------------------|-----|-----------------
|---|-------|-----------------|-----|-----------|---------------------|-----|-----------------
|---|-------|-----------------|-----|-----------|---------------------|-----|-----------------


Continuing from last bar:
  e   h s s   s s s s s s s s s s e e s s   h s s   s e s  e  s  s s s s s s s s s
|---|---2-5-|-7-2-5-7-2-5-7-2-5-7-0-2-0---|-0-0-2-|-5-7-10-12-10-7-5-2-2-0---------|
|---|-------|---------------------------3-|-------|------------------------3-0-----|
|---|-------|-----------------------------|-------|----------------------------2---|
|-4-|-2-----|-----------------------------|-------|------------------------------4-|
|---|-------|-----------------------------|-------|--------------------------------|
|---|-------|-----------------------------|-------|--------------------------------|

Measure 15:
  h e s s s s   q q q q
|---2-2-2-2-2-|-2-2-2-2-|
|-------------|---------|
|-------------|---------|[Now, ad lib. take-off over bassline...just improvise]
|-2-----------|---------|
|-------------|---------|
|-------------|---------|

Em                            
  //  /  /    /   /  /   /     Em
  q.e e q e   e e e e  e e e   q.e e q e   e e e e  e e e
|-----------|----------------|-----------|----------------||[Jimi improvises and ad-libs for a
|-----------|-----0----------|-----------|-----0----------|| while...just make up some groovy
|---------0-|-2-2---2--2-0---|---------0-|-2-2---2--2-0---|| stuff in this key...]
|-0-3-3-3---|--------------3-|-0-3-3-3---|--------------3-||
Comments