Hendrix Jimi - Manic Depression Chords & Tabs

 

Manic Depression Chords & Tabs

Hendrix Jimi Chords & Tabs

Version: 3 Type: Tab 0 ratings
1 star 2 stars 3 stars 4 stars 5 stars
comments

Manic Depression Tab

#----------------------------------PLEASE NOTE---------------------------------#
#This file is the author's own work and represents their interpretation of the #
#song. You may only use this file for private study, scholarship, or research. #
#------------------------------------------------------------------------------##

Jimi Hendrix Experience: Manic Depression
Tabber: unknown

this is a great tune one of my favorite hendrix tunes you tune a half step down for this one
thats means your low e string is tuned to Eb and so on for the rest of the strings i cant
give you the timeing so listen to the song for the timeing have fun if you have comments
about mistakes or any thing else collins3342003@yahoo.com 


     intro

eb------------------|---------------------------------------------|
bb------------------|---------------------------------------------|
f#------------------|---------------------------------------------|
db------------5-6-7-|--- 7-5-7-5---7-5-7-5-----7-5-7-5----7-5-7-5-|
ab---5-6-7----------|--0---------0----------0-----------0---------|
Eb------------------|---------------------------------------------|






   verse                              

eb-------------------------|------------------------------------------|
bb-------------------------|------------------------------------------|
gb-------------------------|------------------------------------------|
db-------------------------|----7-5-7-5---7-5-7-5---7-5-7-5---7-5-7-5-|
ab----0-4-7----2-5-3-5-6-7-|--0---------0---------0---------0---------|
Eb-----------3--------------|-----------------------------------------|




                                 
eb-------------------------|------------------------------------------|
bb-------------------------|------------------------------------------|
gb-------------------------|------------------------------------------|
db-------------------------|----7-5-7-5---7-5-7-5---7-5-7-5---7-5-7-5-|
ab----0-4-7----2-5-3-5-6-7-|--0---------0---------0---------0---------|
Eb-----------3--------------|------------------------------------------|




eb---------------|--------------------------------------------------|
bb---------------|--------------------------------------------------|
gb---------------|--------------------------------------------------|
db---------------|--------------------------------------------------|
ab------2---2-5-3|5-3-5-3-5-3-5-3-5-3-1-3-1-3-1-3-1-----------------|
Eb--0-4---3------|----------------------------------3-1-3-1-3-1-3-1-|







eb-------------------|-----------------|-------------------------------------------------|
bb-------------------|-----------------|-------------------------------------------------|
gb-------------------|-----------------|-------------------------------------------------|
db-------------------|-----------5-6-7-|----7-5-7-5-----7-5-7-5-----7-5-7-5-----7-5-7-5--|
ab----0-4-7----2-5-3-|--5-6-7----------|--0-----------0-----------0----------0 ----------|
Eb-----------3-------|-----------------|-------------------------------------------------|








eb-------------------------|--------------------------------------------------|
bb-------------------------|---------5~~-------5~~--------5~~----------5~~----|
gb-------------------------|-----7b9-------7b9-------7b9----------7b9---------|
db-------------------------|--------------------------------------------------|
ab----0-4-7----2-5-3-5-6-7-|--0---------0---------0-----------0---------------|
Eb-----------3-------------|--------------------------------------------------|










eb-------------------------|--------------------------------------------------|
bb-------------------------|---------5~~-------5~~--------5~~----------5~~----|
gb-------------------------|-----7b9-------7b9-------7b9----------7b9---------|
db-------------------------|--------------------------------------------------|
ab----0-4-7----2-5-3-5-6-7-|--0---------0---------0-----------0---------------|
Eb-----------3-------------|--------------------------------------------------|







[ Tab from: http://www.guitartabs.cc/tabs/h/hendrix_jimi/manic_depression_tab_ver_3.html ]
eb---------------|--------------------------------------------------|
bb---------------|--------------------------------------------------|
gb---------------|--------------------------------------------------|
db---------------|--------------------------------------------------|
ab------2---2-5-3|5-3-5-3-5-3-5-3-5-3-1-3-1-3-1-3-1-----------------|
Eb--0-4---3------|----------------------------------3-1-3-1-3-1-3-1-|








                                                          theres a solo here back it with this
eb-------------------|-----------------|--------------|------------------------------------------|
bb-------------------|-----------------|--------------|------------------------------------------|
gb-------------------|-----------------|--------------|------------------------------------------|
db-------------------|-----------5-6-7-|--------5-6-7-|---7-5-7-5---7-5-7-5----7-5-7-5--7-5-7-5--|
ab----0-4-7----2-5-3-|--5-6-7----------|--5-6-7-------|-0---------0----------0---------0---------|
Eb-----------3-------|-----------------|--------------|------------------------------------------|










eb-------------------------|--------------------------------------------------|
bb-------------------------|---------5~~-------5~~--------5~~----------5~~----|
gb-------------------------|-----7b9-------7b9-------7b9----------7b9---------|
db-------------------------|--------------------------------------------------|
ab----0-4-7----2-5-3-5-6-7-|--0---------0---------0-----------0---------------|
Eb-----------3-------------|--------------------------------------------------|









eb-------------------------|--------------------------------------------------|
bb-------------------------|---------5~~-------5~~--------5~~----------5~~----|
gb-------------------------|-----7b9-------7b9-------7b9----------7b9---------|
db-------------------------|--------------------------------------------------|
ab----0-4-7----2-5-3-5-6-7-|--0---------0---------0-----------0---------------|
Eb-----------3-------------|--------------------------------------------------|








eb---------------|--------------------------------------------------|
bb---------------|--------------------------------------------------|
gb---------------|--------------------------------------------------|
db---------------|--------------------------------------------------|
ab------2---2-5-3|5-3-5-3-5-3-5-3-5-3-1-3-1-3-1-3-1-----------------|
Eb--0-4---3------|----------------------------------3-1-3-1-3-1-3-1-|







eb-------------------|-----------------|---------------------|
bb-------------------|-----------------|---------------------|
gb-------------------|-----------------|---------------------|
db-------------------|-----------5-6-7-|------------5-6-7----|
ab----0-4-7----2-5-3-|--5-6-7----------|---5-6-7-------------|
Eb-----------3-------|-----------------|---------------------|



eb-------------|------------|---------|------|------|-5---|------|-----|------|-5---|
bb-------------|------------|---------|---5--|------|-8b10|------|--5--|------|-8b10|
gb-------------|------------|---------|--7b9-|------|-----|------|-7b9-|------|-----|
db--------5-6-7|-------5-6-7|---------|------|-5-6-7|-----|------|-----|-5-6-7|-----|
ab--5-6-7------|-5-6-7------|---5-6-7-|------|------|-----|-5-6-7|-----|------|-----|
Eb-------------|------------|---------|------|------|-----|------|-----|------|-----|







eb-------------|------------|---------|------|------|-----|------|-----|------|-5---|
bb-------------|------------|---------|---5--|------|--5--|------|---5-|------|-8b10|
gb-------------|------------|---------|--7b9-|------|-7b9-|------|--7b9|------|-----|
db--------5-6-7|-------5-6-7|---------|------|-5-6-7|-----|------|-----|-5-6-7|-----|
ab--5-6-7------|-5-6-7------|---5-6-7-|------|------|-----|-5-6-7|-----|------|-----|
Eb-------------|------------|---------|------|------|-----|------|-----|------|-----|





eb-------------|------------|--------------|
bb-------------|------------|--------------|
gb-------------|------------|--------------|  there a solo to end it it just like the first solo
db--------5-6-7|-------5-6-7|---------5-6-7|
ab--5-6-7------|-5-6-7------|--5-6-7-------|
Eb-------------|------------|--------------|






LEGEND:   b=bend up to
          ~=vibrato
Comments