Hendrix Jimi - Little Wing Chords & Tabs

 

Little Wing Chords & Tabs

Hendrix Jimi Chords & Tabs

Version: 3 Type: Tab 2 ratings
1 star 2 stars 3 stars 4 stars 5 stars
comments

Little Wing Tab

   
"Little Wing" by: Jimi Hendrix
	Posted by: R3d.H4wk
	emal: Aria_dmb_Pro2@msn.com
*----------------------------------------------------------------*     
*Jimi Hendrix played this song a half step flat from what Iam    *
*showing you.  So if you want to play along with the cd who will *
*have to move everything a fret left.                            *
*This song is pretty simple once you practice it alot.Its in     *
*Em Pentatonic, just so you know where to play you solos.        *
*-----------------------------------------------------------------
	/= SLIDE UP                            I KNOW THIS LOOKS HARD AND CONGUSING
	H= HAMER ON                        BUT IF YOU START SLOWLY AND TAKE YOUR TIME, IT WILL
	\= SLIDE DOWN                     COME NATURALLY AND SOUND VERY PERCISE TO THE ACTUALL SONG.
	*= MUTED NOTE
	P= PULL OFF
[ Tab from: http://www.guitartabs.cc/tabs/h/hendrix_jimi/little_wing_tab_ver_3.html ]
(INTRO)
                                                G
E---\-*12------\-*------------------------------3-----3H5P3--3-----------------------
B---\-*12------\-*------------------------------3-----3---3--3H5P3-------------------
G---\-*12------\-*-----------5---------5---5----4--------------------5-5-4-5-4-------
D--------------\-*-----------5---------5---6----5------------------------------5-----
A--------------\-*---------------5H7------------5------------------------------------
E-----------0--\-*-----5--7---------------------3------------------------------------
   Am                                    Em           Em
E--5-------------------------------------------3H5P3---------------------------------
B--5---------------5---------------------------3-------------------------------------
G--5---------------5H7---5----------------------------------0-2/4\2H0----------------
D--7---------------------5H7---5----------2-----------2-2-------------2--------------
A--7--------5-7----------------5H7--------2-----------2-2----------------------------
E--5---5-7--------------------------7\0----------------------------------------------
   Bm             Bbm   Am
E--7---9-12-8-7----6----5--5/7\5-------------------------3--3/5-5-3\1----------------
B--7---7------7----6----5--5/7\5-------------------------3--3/5-5-3\1----------------
G--7---7------7----6----5--5/7\5-------------------------4---------------------------
D--9---7------7----8----5--5/7\5-5-------5-7-5-----------5---------------------------
A--9---7------7----8----7--7/9\7---8-7----------8-7\-----5---------------------------
E--7---7------7----6-------------------------------------3---------------------------
   C   D
E----------7-------------------------------------------------------------------------
B--5---7---7--7H8P7------------------------------------------------------------------
G--5---7---7--------7H9P7------------------------------------------------------------
D--5---7---7---------------7H9P7-----------------------------------------------------
A--3---5---7----------------------10-9-----------------------------------------------
E----------7-------------------------------------------------------------------------
          *
         THIS CAN BE ACHIVED BY BARING THE 7TH FRET WITH YOUR INDEX FINGER
       AND USING YOUR MIDDLE AND RING FINGERS TO DO THE REST.  IT LOOKS LIKE A HARD
       RIFF BUT ITS ACUALLY VERY EASY AND ITS A GOOD WAY TO END SOLOS WITH THAT
      CHARACTERISTIC BIT OF STYLE.

(VERSE)*  I WILL SHOW YOU ALL THE CHORDS IN THE VERSE PART AND THE CHORDS ONLY.
          YOU NOTICE THE JIMI PUTS IN THINGS BETWEEN AND DURING DIFFERENT CHORDS.
          THESES ADD IN'S ARE BASED ON THE INTRO, SO IF YOU WANT TO DO THEM, STUDY THE
          INTRO TO PLAY THEM YOURSELF.  YOU MAY ALSO NOTICE THESE ARE THE SAME CHORDS IN
          THE INTRO JUST PLAYED DIFFERENTLY.
          
    Em    G    Am   Em   Bm    Bbm   Am      C     G     F     C      D
E---7-----3-----5---------2-----1------------------3-----1-----------------------------
B---8-----3-----5---------3-----2-----1------5-----3-----1-----5------7-----------------
G---9-----4-----5---------4-----3-----2------5-----4-----2-----5------7-----------------
D---9-----5-----7----2----4-----3-----2------5-----5-----3-----5------7-----------------
A---7-----5-----7----2----3-----1------------3-----5-----3-----3------5------------------
E---7-----3-----5---------3-----1------------------3-----1------------------------------


	OBVIOULSY THESE CHORDS ARE NOT IN TIME, BUT JUST LISTEN TO THE SONG AND FIND OUT
        WHERE TO PUT THE CHORDS, PLAY THEM, AND HOW LONG YOU SHOULD PLAY THEM.  FOR THE 
        SOLO JUST MAKE UP YOUR OWN OR FIND IT OUT BY PLAYING THE Em PENTA. AND LISTENING
        TO THE SONG.  I DONT KNOW MOST OF THE SOLO BECAUSE I PLAY MY OWN AND I FIND AT
        TIMES IT SOUNDS BETTER.  BUT I IMAGINE IT WOULDNT TAKE VERY LONG TO LEARN IT ANY
        WAY.  SO JUST HAVE FUN WITH IT, ITS A GREAT SONG!
Comments