Hendrix Jimi - Little Wing Chords & Tabs

 

Little Wing Chords & Tabs

Hendrix Jimi Chords & Tabs

Version: 1 Type: Tab 18 ratings
1 star 2 stars 3 stars 4 stars 5 stars
comments

Little Wing Tab

   
LITTLE WING
As recorded by The Jimi Hendrix Experience
(From the 1968 Album AXIS: BOLD AS LOVE)

Gtr I (Eb Ab Db Gb Bb Eb) - 'Jimi Hendrix - Rhythm clean'
Gtr II (Eb Ab Db Gb Bb Eb) - 'Jimi Hendrix - Lead w/dist'

Intro
  Q=70
 4/4
  Gtr I
                                          |-3-|
  S  E.   E E S S E S S S S S S E     E E S S S S S a  E  S S S S E
|-x-12\-|-----x-x------------------|------3h5p3-3-------------------|
|-x-12\-|-----x-x---------------5\-|------3-----3---3-(3)-3-3-------|
|-x-----|-----x-x-------0-----5-5\-|----0---------0-4h=5--5-4-5-4---|
|-------|-----x-x---------5---5-7\-|------------------------------5-|
|-------|-----x-x---0h2---5h7------|--------------------------------|
|---12\-|-0---x-x------------------|-/3-----------------------------|


                         |-3-| |3|
  Q  S S S S a  S  S a E S S S S E
|-------------------------------------|
|------------5-(5)-5------------------|
|--------5---5h=7--5------------------|
|--------5-----------5h7-5---5--------|
|----5-7---7-------------5h7----------|
|-5----------------------------5h7\---|


  E E a  S   S  S S S  S S a  S  S  S E
|---------------------------------------|
|-----8h10p==8--------------------------|
|-----7-(7)-(7)-7--------7-7-(7)-7--7-7-|
|-----------------9----7-7-7h=9--7--7-7-|
|---7-------------7-7-10-----------10-7-|
|-0-------------------------------------|


  E E E  S S a  S S S S S S S S   E E S S S S E S S S S E
|-----9-10-9----7-7-------------|---------------------------|
|-----7-10-7-7h10-7-7-----------|---------------------------|
|---7----7-7--------7-------7---|---5-5-5-5-----5-5-5-------|
|---9---------------9-------8s7-|---7-9-7-5-5-5-5-7-5-------|
|-------------------------8-----|-----------8-7-------------|
|-7-------------------7-6-------|-5-------------------5h7\--|


                                   2/4
                                        PM|
   E E a E S S T S. S S  S  S S S   a E S S S S  S  T  T
|------5s7-5---5s3----------------|-----------------------|
|------3s5-3---3-1--1----1--------|---------1-3p=1--------|
|----0---------0----0----0----0---|-----2-2---2-(2)---(0)-|
|----5-5s7-5---5s3-------3----3---|-----2-2---------------|
|------------------------3----3---|-0h3-------------3-----|
|-/3---------0--------1-(1)-1---1-|-----------------------|


 4/4
   E. S S S S S S  S  S S  E E   E E Q  Q  E  E
|------------------------------|-------------12\--||
|---------------7-(7)-7-7------|-------------12\--||
|-------------7-7-(7)-7-7--7-7-|-7----------------||
|-----7---7---7-7h=9--7-7--7-7-|-7----------------||
|-/5----5---5-------------10-7-|-9----------------||
|------------------------------|-------------12\--||


 Verse 1
                    PM----|
        |-3-|  |3-|              |-3-|
  Q  a  S S S +E  S S S S S E    S S S
|--------------------------------------|
|----0-(0)-----------------------------|
|----0---------------------------------|
|----0h=2p0h2-(2)-----2---2-0tr2-------|
|-----------------2--------------0h2p0-|
|-0-----------------0---0--------------|


  E E S S S S S S S S Q    H    S S E S  S  a T T T T
|------------------------|----------------------------|
|-------------3-3-2---3--|----------------------------|
|---------2---2-4-3---2--|------5-5-5---------5-------|
|-----------5-------5-5--|------9-7-5-5-(5)-5h7p5h7p5-|
|------------------------|------------5h=7------------|
|-3-3---3----------------|-5--------------------------|


  Q   S S S S +Q   S S S  S
|---------------------------|
|----10p8----------8--------|
|-----7--------------7------|
|---------9------------7----|
|-----------7-(7)--------10-|
|-0-------------------------|


                        |3| |-3-|
  Q  S S S  S S S T T S E S S S S   E E S S E S S S S E a E
|----7-9-7------------------------|---------------------------|
|----------10-7-7-----------6-----|---------------------------|
|---------------7-9p7-------8p7---|---5---5-5---5-------------|
|---------------------9-8-8-----8-|-7-7-9-7-5-5-5-5-5-5---5---|
|---------------------------------|-----------8---8-7-8-7h8---|
|-7-------------------------------|---------------------------|


                         2/4           4/4
                  |3|
  Q  S S E  E S S E S E   a Q  +S  E.   E E S S E E. S E E   E Q  E Q  S S E
|----3------3-3---------|-------------|--------------------|-2-----------x-x--||
|----3------1-1---------|----------1--|---3-3---3----------|-3-----------x-x--||
|----5-4--------0-------|-------------|---2---2------2---2-|-2-----------x-x--||
|------4-5\-------3---3-|---2--(2)----|-0---------0----0-0-|-0-----------x-x--||
|-----------------------|-0h3--(3)----|--------------------|-------------x-x--||
|-3------3\---------1-1-|---3--(3)----|--------------------|-------------x-x--||


 Verse 2
  H     a  S   S  S  S  S  S  a  E
|-------0-(0)--0--------------------|
|------12h14--12-----0--0-----------|
|----------------14-12--0-----------|
|----------------------14-12----12\-|
|----------------------------12h14\-|
|-0---------------------------------|


  Q  S S S S a E E +S  S S S   H    S S S S S S E
|----------------------------|---------------------|
|----3s5s3s5-3s5s3-(3)-3-----|---------------------|
|----2s4s2s4-2s4s2-(2)-2-----|---------------------|
|----------------------------|------------5-5------|
|----------------------------|--------3-5-7-5------|
|-3----------------------3-5-|-5----5---5-----5-7\-|


                     |3| |-3-|                       |3|
  Q  a  S  S S S E E E S S S S   Q  +E  S  S S S S S E S E
|------------------------------|--------9-10-9-7-----------|
|----8h10p=8-------------------|--------7--7---7---------6-|
|----7-(7)---------------------|-----------------7-------7-|
|----9-(9)---9-9-----9-7-7h9-9-|-------------------------8-|
|----------------7-7-----------|-------------------9---8---|
|-0----------------------------|-7--(7)--------------6-----|


        |3|           |3|
  S T T E S S S E S S E S S S  E
|-5---------------------------------|
|-5h7p5-----5-----------------------|
|-------7-5-5-5-5-----5-5-----------|
|---------7---7-5-5---5-5-5-5-(5)\--|
|-----------------5h7---8-7-5h=7\---|
|-----------------------------------|


                                 2/4
    |-3-|            |3-| |-3-|      |3-| |3|
  E S S S E a E E E +E  S S S S   E +E  S E S E
|-----------5s7-5S3-(3)---------|---------------|
|---0-------3s5-3S1-(1)---------|---------------|
|---0h2---------0-0-(0)---------|---------------|
|---------5-5s7-5S3-(3)---------|-5-(5)-5---5-5-|
|-------------------------------|-3-(3)---3---3-|
|-3-------3-------------1-1s3-5-|---------------|


 4/4
                                 \2.5_____________________/
     |3-|   |3|   |3|
  E +E  S E E S E E S E. S   S   E.      +Q      +Q      +S     +S    S  S
|--------------------------|-------()--()--()-()-------||
|--------------------------|-------()--()--()-()-------||
|-7-(7)-7-7-7-7-7-7-7-7----|-------()--()--()-()-------||
|-7-(7)-7-7-7-7-7-7-7-7----|-------()--()--()-()-------||
|-5-(5)-5-5-----5-5-5-5----|-----------------------------------------------||
|--------------------------|-----------------------------------------15\-0-||


 Guitar Solo
  Gtr II
   ~~~~~~~~~~~~
   a      +H            a      +E      E    E    S  S
|-----------------------------------------------------|
|-15b17==(15)r---------15b17==(15)r---15---12---12h15-|
|-----------------------------------------------------|
|-----------------------------------------------------|
|-----------------------------------------------------|
|-----------------------------------------------------|
|
| Gtr I
|          E   E E S S          S   S  S S  S S  S  S
|-----------------------------------------------------|
|----------0---0-0-0-0--------------------------------|
|----------0---0-0-0-0----------------------0----0----|
|----------2---2-2-2-2----------2---2--2-2--2----0----|
|----------2---2-2-2-2----------2---2--2-2----2--0----|
|----------0---0-0-0-0----------0---0--0-0----0--0h=3-|

   ~~
   Q    +E   S      +S   Q          a      +E    E
|----------------------------------------------------|
|-12---(12)-15pb17r(15)-------------------------15---|
|-----------------------12---------14b16==(14)r------|
|----------------------------------------------------|
|----------------------------------------------------|
|----------------------------------------------------|
|
|  E E   E.          S   S S S  S           E    S S
|--3-3-----------------------3-(3)-------------------|
|--3-3---3---------------3---3-(3)----------3--------|
|--0-0---0-----------4---5p4-5p=4-----------4--------|
|--0-0---0----------------------------------5--------|
|--------------------5-------------------------------|
|--3-3---3-----------3---------------------------3-5-|

[ Tab from: http://www.guitartabs.cc/tabs/h/hendrix_jimi/little_wing_tab.html ]
   |------3-------|
   E      +E      E    +S   S  S  S      +S   +S       +E     S  +E       S
|-----------------------------------------------------------------------------|
|-----------------------------------------------------------------------------|
|-14b16==(14)r---14---(14)----12-14b16==(14)r(14)b16==(14)---14r(14)-----12---|
|--------------------------14-------------------------------------------------|
|-----------------------------------------------------------------------------|
|-----------------------------------------------------------------------------|
|
|  E           S    S   S   S  E          S    S        S  S  S   S  a E
|-----------------------7---5-------------------------------------------------|
|-----------------------5---5--5----------7----5------------------------------|
|-----------------------5------5----------7----5--------5--5--5---5-----------|
|------------------------------7------------------------7--5--7---5----5------|
|--------------7----7------------------------------------------------5h7------|
|--5-----------5----5---------------------------------------------------------|


   ~~~                                     ~~~
   Q     S  S      +S    S  S  S  S  S  S  E.
|---------------------------------------------------|
|---------------------------------------------------|
|-------12-14b16==(14)r-12-14----12-14-12s14--------|
|-14--------------------------14--------------------|
|---------------------------------------------------|
|---------------------------------------------------|
|
|  E. S  E          S    S  E     S  S  S  S  T T S
|--7--7--7----------7----7--7-----7--7--------------|
|--8--8--8----------8----8--8-----8--8--------------|
|--7--7--7----------7----7--7-----7--7--7--7--9p7---|
|--9--9--9----------9----9--9-----9--9--9--9------9-|
|--7--7--7----------7----7--7-----7--7--------------|
|--0--0--0----------0----0--0-----0--0--------------||

     ~~~      ~~~         ~~
                                |------3-------|
   S  E.    S  E.       a  Q    E      +E     +E
|---------------------------------------------------|
|---------------------------------------------------|
|-------12-14b16==(14)r-12-14----12-14-12s14--------|
|-14--------------------------14--------------------|
|---------------------------------------------------|
|---------------------------------------------------|
|
|                               |---3---|
|  E     E  S  S   S S     E E  E       S  E
|-----------7--9--10-9-----7----------------------|
|--------7--7--7---7-7-----7----------------------|
|--------7--7--------------7------------7--7------|
|--------7------------------------------8--8------|
|--------9-------------------7----------8--8------|
|--7-------------------------9----------6--6------|


                                     ~~~~
   a  S  S  S  S  S  S  E    a      +Q       S  +S   E
|----------------------------------------------------------|
|-12h13p12-13p12-13p12------15b17==(15)-----15r(15)-12-----|
|----------------------12----------------------------------|
|----------------------------------------------------------|
|----------------------------------------------------------|
|----------------------------------------------------------|
|
|     E     S  S  S  S  S S          E  S S  S   S   S S
|----------------------------------------------------------|
|-----5--------5--5--5--5------------1--1-0--3---3---3-3---|
|-----5-----5--5--5--5--5-0----------0--0----2---2---2-2---|
|-----7-----7--7--7--7--7-0----------2--2----0---0---0-0---|
|-----7--------7--7--7--7------------3--3----0---0---0-0---|
|-----5--------5--5--5--5------------3--3------------------|


   a      +E    S  S  a      +E    S   S  S   S  E    S      +S   +S   S
|--------------15-15--------------15-----13------------------------------|
|--------------------------------------------13--------------------------|
|-14b16==(14)r-------14b16==(14)r----\12--------12---12b13==(12)r(12)-12-|
|------------------------------------------------------------------------|
|------------------------------------------------------------------------|
|------------------------------------------------------------------------|
|
|          E    S  S          E    S   S  E      S S  S       S    S   S
|------------------------------------------------------------------------|
|----------0----0--0---------------3s==1-(1)-----1-1--1------------0---1-|
|----------0----0--0----------0----0---0-(0)-----0-0--0-------0----0-----|
|----------0----0--0----------0----5s==3-(3)-----3-3----------3----------|
|-----------------------------5-----------3------3-3---------------------|
|----------3----3--3----------3-----------1------1-1---------------------|


 2/4                 4/4
  |-3-|    |-3-|                           |--3--|  |-3--|
  S S S  E S S S  E    a  E.      S  S  S  S  S  S  S S  S  E    +E     E
|-------------------|-----------------------------------------------------|
|-------------------|---------------10----10-------10------10---(10)------|
|-7h9p7----7h9p7----|----------------9----11h12p11-11p9-----9----(9)------|
|-------10-------10-|-10s12------12----12---------------12-------------12-|
|-------------------|-----------------------------------------------------|
|-------------------|-----------------------------------------------------|
|
| E      E E      E       S  S S  S  E     E        E       S S   S  S  E
|-------------------|-----------------------------------------------------|
|-5------5-5------5-|-----5--7-7--7--7-----7--------7-------7-7---7--7--7-|
|-5------5-5------5-|-----5--7-7--7--7-----7--------7-------7-7---7--7--7-|
|-5------5-5------5-|-----5--7-7--7--7-----7--------7-------7-7---7--7--7-|
|-3------3-3------3-|-----3--5-5--5--5-----5--------5-------5-5---5--5--5-|
|-3------3-3------3-|-----3--5-5--5--5-----5--------5-------5-5---5--5--5-|


             \7
   S   E.   +H.
|-----()-------|
|-----()-------|
|-----()-------|
|-12--()-------|
|----------------------|
|----------------------|
|
|  Q         Q    H 
|----------------------|
|--7-------------------|
|--7-------------------|
|--7-------------------|
|--5-------------------|
|--5-------------------|


            ~~~~~
                                                                  |--3--|
   a      +Q     Q       a      +E        E      a      +E        S  S  S
|-------------------------------------------------------------------------|
|-15b17==(15)r--15pb17--15b17==(15)r-----15-------------------------------|
|-----------------------------------------------14b16==(14)r-----14p12----|
|----------------------------------------------------------------------14-|
|-------------------------------------------------------------------------|
|-------------------------------------------------------------------------|
|
|                                |--3--|  |-3-|          |--3--|  |--3--|
|          Q     Q               S   S S  S S S          S   S S  S  S  S
|-------------------------------------------------------------------------|
|----------0-----0---------------8--------8--------------8----------------|
|----------0-----0---------------7h==9p7--7h9p7----------7h==9p7--7-------|
|----------2-----2------------------------------------------------7h=9p=7-|
|----------2-----2--------------------------------------------------------|
|----------0-----0--------------------------------------------------------|


   S      +E    S    E     S  S  a      +S    S  a      +S    S  a      +S    S  a      +E
|--------------15---15-------15--------------15--------------15--------------15--------------|
|--------------------------------------------------------------------------------------------|
|-14b16==(14)-(14)-(14)r--------14b16==(14)r----14b16==(14)r----14b16==(14)r----14b16==(14)r-|
|--------------------------------------------------------------------------------------------|
|--------------------------------------------------------------------------------------------|
|--------------------------------------------------------------------------------------------|
|
|  E.           S    S   S S  S          S    S          E               E               E
|---------------x----3---3-3--3----------3---------------------------------------------------|
|---------------3----3---3-3--3----------3---------------------------------------------------|
|---------------4----5---5-5--5----------5p===4----------4-----------------------------------|
|---------------5----------------------------------------5-----------------------------------|
|--x-----------------------------------------------------------------------------------------|
|--3---------------------------------------------------------------------3---------------4---|


                                              ~~~~~~~~~~~~~~~~~~
   a      +S   +E     S  S  S   S  S  a      +Q             +S     S    S    S
|--------------------------------------------------------------------------------|
|--------------------------------------------------------------------------------|
|-14b16==(14)r(14)---12-14-----12----14b16==(14)r==========(14)---12h==14p==12---|
|--------------------------14-----14---------------------------------------------|
|--------------------------------------------------------------------------------|
|--------------------------------------------------------------------------------|
|
|                                             |-3--| |-3-|   |---3---|  |--3---|
|          E       S  S  S  S   S  S          S  S S S S S   S  S    S  S S    S
|------------------------7p=5----------------------------------------------------|
|------------------------5-(5)--5--5---------------5-----------------------------|
|------------------5--5--5-(5)--5--5----------7--5-5-----------------------------|
|------------------5--5---------7------------------7-5-7-5-----------------------|
|----------7-------7--7--------------------------------------7--5----------------|
|----------5---------------------------------------------------------7--6-5----3-|


            |--3---|  |3-|  |3-|  |-3--|  |-3--|  |3-|
   E.    S  E      S  E  S  E  S  E    S  E    S  E  S
|-------------------------------------------------------*|
|-------------------------------------------------------*|
|--------------------12-12----12-12---12------12--------*|
|-14----12-----------12-12-14-12-12---12------12-14-14--*|
|----------14-----14---------------------14-------------*|
|-------------------------------------------------------*|
|
|           |3-|
|  E  S  S  S  E      E     E     S S     S S     E
|---------------------------7-----7-7-----7-7-----7-----*|
|-----8--8-10p=8------8-----8-----8-8-----8-8-----8-----*|
|-----7--7--7-(7)-----7-----7-----7-7-----7-7-----7-----*|
|-----9--9--9-(9)-----9-----9-----9-9-----9-9-----9-----*|
|---------------------------7-----7-7-----7-7-----7-----*|
|--0------------------------0-----0-0-----0-0-----0-----*|

Comments