Hendrix Jimi - Little Wing (live) Chords & Tabs

 

Little Wing (live) Chords & Tabs

Hendrix Jimi Chords & Tabs

Version: 1 Type: Tab 0 ratings
1 star 2 stars 3 stars 4 stars 5 stars
comments

Little Wing (live) Tab

   
#----------------------------------PLEASE NOTE---------------------------------#
#This file is the author's own work and represents their interpretation of the #
#song. You may only use this file for private study, scholarship, or research. #
#------------------------------------------------------------------------------##

LITTLE WING (LIVE AT ROYAL ALBERT HALL)
                           As recorded by Jimi Hendrix
               (From the 1968 Boxset THE JIMI HENDRIX EXPERIENCE)

Music by Jimi Hendrix
Guitar Chords and Bass Tab

Tabbed by:  Jon Symons


          Em                    G                   Am                   Em7
    12 14 14 12 x x        3 5 5 4 3 3          5 7 7 5 5 x          0 7 9 7 8 7

          Bm                   Bb                    C                  Gadd9
      7 x 9 7 7 7          6 x 8 7 6 x          x 3 5 5 5 x          3 x 5 4 3 5

         Fadd9                  D                  Dopen                 Eb
      1 x 3 2 1 3          x 5 7 7 7 x          x x 0 2 3 2          x 6 8 8 8 x

 Intro
   Slow Rock Q=67
             N.C.(Em)
 4/4
   Gtr I
|----12\--||------------------------------------------|
|--x-12\--||-----x------------------------------------|
|--x------||-----x---0--------12----12-(12)-12--------|
|--x------||-----x--(0)----------12h14-(14)-12--------|
|--x------||-2----------12h14------------------12h14\-|
|----12\--||-0----------12----------------------------|


  (G)
|----------------5p3-5p3-5p3---------|
|------3-------------3---3---3-------|
|------4h5p4-----------------4-------|
|------------5-----------------5-----|
|----5-------------------------------|
|-3------------3---------------3-(0)-|


  (Am)
|------------------------------------------|
|------------------------------------------|
|--------5---5h7p5---------5---5-----------|
|----(5)-7-7-------7-7---5-5---5h7-5-------|
|----------------------5-7---7-------5h7-7-|
|-5--------------------------------------0-|


  (Em7)
|---------------------------------------|
|-------8h10p8--------------------------|
|--------------7-------7-7--------------|
|----------------7---7-9-7h9-7----------|
|------------------7-----------7h10-7-7-|
|-0-------------------------------------|


  (Bm)                      (Bb)      (Am)            (C)
|-------7-------------7-------------|---------------------------------------|
|-------7h10-7--7---7---7-------6---|-------7---------------5h6-------------|
|---------------7-------7-------7-7-|----5--7---7-5-------5-----5-----(5)---|
|-----------------------------8---8-|----7--7h9-7-5-----5-------5-----(7)---|
|-----------------------------------|---------------0-3-----------5h7--7s=5-|
|-7--7------------7-------0-6-------|-5-------------------------------------|


  Gadd9                Fadd9               C
                                          2/4
|---------5s==7--5---5s3-----------------|-----------------|
|---------3s==5--5---3s1---1-------1-----|-------(5)-------|
|--------(4)s(6)-4-------2---------2-----|----5---5--5-----|
|--------------------5s3-------3---3-----|----5------5-5-5-|
|----------------------------------------|-3-----------3---|
|-3--3-3-----------3---------1---1---3s5-|-----------------|


  D5
 4/4
|-------------------------------|-----------------||
|----------------7--------------|-----------------||
|----7-7-(7)-----7----7---7-----|-----------------||
|-7--7-7-(7)-7-5-7h9--7---7--7--|-----------------||
|-5----------5-5---------10--7--|-7h9p7-----------||
|-------------------------------|-----------------||
|
| Gtr III
|-------------------------------|-----------------||
|-------------------------------|-----------------||
|-------------------------------|-----------------||
|-------------------------------|-----------------||


 1st Verse
  Em7
|---------------------------------x--|
|----------8h10p8-----------------x--|
|---------------------------------x--|
|------------------9---9-9--9--------|
|------------------------7--7--------|
|-0--(0)-0---------------------0-----|
|
|------------------------------------|
|------------------------------------|
|-7---------------(7)----7--7--7-----|
|----------------------7-------------|


  G
|-------------------------------------------|
|---------3-----------------------3---------|
|---------2h4p2-------5p4p2-(2)---2h4p2-----|
|----------------5--5-----------5-------5-x-|
|-----------------------------------------x-|
|-3--(3)------------------------------------|
|
|-------------------------------------------|
|-5-------------(5)-----5----5----------5-5-|
|---------------------5---------------------|
|-------------------------------------------|


  Am
|------------------------------------------|
|--------5h=8p=5--------------x------------|
|----5------------5-5-5h7p5---x---------x--|
|----7------------7-7-------7---5h=7----x--|
|-------------------------------5--7--7----|
|-5----------------------------------------|
|
|------------------------------------------|
|-7--7--(7)---(7)-----7-----7-----(7)---7--|
|-------------------7-----------------7----|
|------------------------------------------|


  Em7
|-------------------------------------------|
|--------8h10p=8----------------------------|
|-----------------7--------7-7-----7--------|
|--------9----------7-7----7-7h=9--7--------|
|---------------------7-10-----------10-7-x-|
|-0--0-0------------------------------------|
|
|-------------------------------------------|
|-------------------------------------------|
|-7--7---7----(7)-----7----7---(7)----6-7---|
|-------------------7-----------------------|


  Bm                       Bb
|-------7------------------------------|
|----x--7h10p7-------------------6-----|
|----x---------7-7-----7------7--7-x---|
|----x---------9-9-----9-9----8----8---|
|--------------------------------------|
|-7----------------7-------6-----------|
|
|--------------------------------------|
|--------------------------------------|
|------------------7-----------------7-|
|-7------------7-----7---7---(7)---7---|


  Am              C
|---------------------------------|
|--------5------------------------|
|----5-5----5-(5)------5--5-------|
|----7------7-(5)----5----5-------|
|-----------------3----------3h5--|
|-5-------------------------------|
|
|---------------------------------|
|-7--7-----------------------3-4--|
|-----------------3--3---(3)------|
|---------------------------------|


  Gsus2            Fsus2             C
                                    2/4
|--------5s7-5---5s3-3-------------|--------------------|
|--------3s5-3---3s1-1---1---------|--------------------|
|----x-0-----------------0---------|--------------------|
|----5-5-5s7-----5s3-3-----3-------|----5--(5)----5--5--|
|----------------------------------|-3--3--(3)-3--3--3--|
|-3------------3-3s1-1-1-----1-3s5-|--------------------|
|
|----------------------------------|--------5-----------|
|-5----------5-5-3---3-------3---3-|--------------------|
|----------------------------------|-3--3---------3--3--|
|----------------------------------|--------------------|


  D
 4/4
|---------------------------------0-|
|----(3)--3---3---3-3-3-3--3--3-3-3-|
|-----2---2---2-----2-2-2--2--2-2-2-|
|-0---0-------0-----0-0-0--0--0-0---|
|-------------0---------------------|
|-----------------------------------|
|
|-----------------------------------|
|-----------------------------------|
|-5---5------(5)--5-5-5---(5)---3-3-|
|-----------------------------------|


             2nd Verse
              Em7
|----------||-----------------------------------|
|-3--------||--------8h10-8---------------------|
|-2--------||--------7------7-7-----(7)---7--x--|
|-0--------||---------------9-9-----(9)---9--x--|
|----------||-------------------7----7----------|
|----------||-0--0-0----------------------------|
|
|----------||-----------------------------------|
|----------||-----------------------------------|
|-5--------||-7--7------7---7-----7-----7----7--|
|----------||-------------------7---------------|


  G
|--------------3s5-3------------------|
|---------3s=5-3s5-3-3s5s3---------3--|
|---------2s=4-------2s4s2--0----4----|
|--------------------------------5----|
|-------------------------------------|
|-3--3-3-------------------(3)-3------|
|
|-------------------------------------|
|-5------(5)-------5-----5---------5--|
|----------------5--------------------|
|-------------------------------------|


  Am
|-------------------------------------------|
|--------5----------------------------------|
|----5---5h=7p5-----------------------------|
|----7----------7-7-7---5---------5---------|
|-------------------5h7-----------5b6---(5)-|
|-5-------------------------5---7-----------|
|
|-------------------------------------------|
|-7-----(7)---------7---7--(7)----5---7--5--|
|-----------------7-------------------------|
|-------------------------------------------|


  Em7
|------------------------------------------|
|------8h10p8-8----------------------------|
|----7--------7-----(7)-7-7----------------|
|----9----------9-7--7--7-7h9--7------7----|
|-----------------7-10-------------10-7----|
|-0--------------------------------------0-|
|
|------------------------------------------|
|------------------------------------------|
|-7-------7-------7-----7-----(7)---5-7----|
|---------------7--------------------------|


  Bm                       Bb
|------------------------------------|
|---------10p7-----------------------|
|---------------7-7----7--------7----|
|---------------9-9----9-9----8------|
|-9--(9)-----------------------------|
|-7-----------------7------6-------0-|
|
|------------------------------------|
|-------------------9--9---8--7------|
|-------------------------------9----|
|-7----------------------------------|


  Am                   C                   Gsus2            Fsus2
|----------------------------------------|--------5s8-5---5s3-3------3------|
|--------5h8p5---------------------------|--------3s6-3---3s1-1------1------|
|------5-------5----------5-5------5---5-|--------------------0------0--0---|
|------7-------7----------5-5--5---5-5---|--------5s8-5---5s3-3------3--3---|
|----------------------3--3----3---------|-----------------------(3)--------|
|-5--5-----------5p(0)-------------------|-3--3-3-------3-3s1-----1-------1-|
|
|--------9-------------------------------|----------------------------------|
|-7--7-----7-----------------------3-4---|-5------5---5-5-3---3------3--3-3-|
|----------------7-----3--3---(3)--------|------5-----------------3---------|
|----------------------------------------|----------------------------------|


  C              D
 2/4            4/4
|-------0--0-0-|-----------2-2----2-2-2-------|
|-------1--1-1-|-3--3------3-3----3-3-3-3-3-3-|
|----0--0--0-0-|-2--2---2--2-2-2--2-2-2-2-2-2-|
|----2--2--2-2-|-0--0-0-0--0-0-0--0-0-0-0-0-0-|
|-3-----3--3-3-|------0----0-0-0--0-0---------|
|--------------|------------------------------|
|
|-5------------|------------------------------|
|--------------|------------------------------|
|----3--3--3-3-|-5--5---5--5---5--5---5---3-4-|
|--------------|------------------------------|


       \1.5________________/
|------0--------(0)--(0)--(0)--(0)--||
|-3--x-0--------(0)--(0)--(0)--(0)--||
|-2--x-0--------(0)--(0)--(0)--(0)--||
|-0--x------------------------------||
|-----------------------------------||
|-----------------------------------||
|
|-----------------------------------||
|-----------------------------------||
|-5---------------------------------||
|-----------------------------------||


 Guitar Solo
  N.C.(Em)
  Gtr II
   ~~~~~
|------------------------------------------|
|-15b17-------------15b17--15--12----12h15-|
|------------------------------------------|
|------------------------------------------|
|------------------------------------------|
|------------------------------------------|
|
|------------------------------------------|
|------------------------------------------|
|--7------7---(7)----7------7--(7)-5-----7-|
|-----------------7------------------------|

[ Tab from: http://www.guitartabs.cc/tabs/h/hendrix_jimi/little_wing_live_tab.html ]
  (G)
   ~~
|----------------------------------------------------------------------|
|-12-------------------------------------------------------------------|
|----------------12-14b16-14b16-14pb16r14p12----14b16====14r(14)-12----|
|---------12--14-----------------------------14---------------------14-|
|----------------------------------------------------------------------|
|----------------------------------------------------------------------|
|
|----------------------------------------------------------------------|
|--5--5---(5)--------5------------------5-------(5)-----------5--------|
|-----------------5------------------------------------5---------------|
|----------------------------------------------------------------------|


  (Am)
      ~~                    ~~~~~~~~~~~~~~
|------------------------------------------|
|------------------------------------------|
|-12s14--(14)-14s16--------16----14----12--|
|------------------------------------------|
|------------------------------------------|
|------------------------------------------|
|
|------------------------------------------|
|-----7----7--------(7)-----7-7--(7)----7--|
|-----------------------7------------7-----|
|------------------------------------------|


  (Em)
             ~~~~~~~                                 ~~
|-----------------------------------------------------------------|
|-----------------------------------------------------------------|
|-12h14-----------------------------------------------------------|
|--------14-14-(14)-------12---------12----------12h14---14p12-14-|
|-------------------12h14----12h==14----12------------------------|
|------------------------------------------15-12------------------|
|
|-----------------------------------------------------------------|
|-----------------------------------------------------------------|
|-----7----------7------7-------------7-----7--------7----7-------|
|-------------------------------7----------------------7----------|


  (Bm)
      ~~       ~~~~~~~~~~~~
|--------------------------------------------------|
|--------------------------------------------------|
|-12s14----14s16--------12----12h=14-12------------|
|----------------------------------------14p12-12--|
|--------------------------------------------------|
|--------------------------------------------------|
|
|--------------------------------------------------|
|--9--------9----(9)-----9--9-(9)---------9-----9--|
|---------------------9---------------9------------|
|--------------------------------------------------|


  (Am)                            (C)
                                   ~~~~~
|---------------------------------------------------------|
|----13p====12-13p=12-13p12-------15b17----15pb17r(15)-12-|
|-12------------------------12-12-------------------------|
|---------------------------------------------------------|
|---------------------------------------------------------|
|---------------------------------------------------------|
|
|------------9--------------------------------------------|
|--7----(7)-----7---------5--5--------------2s======3---4-|
|----------------------------------3----3-----------------|
|---------------------------------------------------------|


  (G)                                   (F)
|------------15-------------15-------15----------------13-(13)-----------|
|------------------------------------------------------------------------|
|-14b16-(14)-----14b16-(14)----14b16----14pb16r(14)-14---------14-14sx---|
|------------------------------------------------------------------------|
|------------------------------------------------------------------------|
|------------------------------------------------------------------------|
|
|-----------------------------------------------------------5------------|
|--5---------(5)-------------5--5-----5--3-----------3----------3----2-3-|
|------------------------5-----------------------------------------------|
|------------------------------------------------------------------------|


  (C)
 2/4
|-8------------------------|
|-8h10p8-------8------8----|
|--------------9p7----7----|
|------------------10---10-|
|--------------------------|
|--------(8)-8-------------|
|
|---------5--5-------------|
|------------------------2-|
|-3------------3------3----|
|--------------------------|


  (D)
 4/4
|-----------------------------------------------------------|
|--------------10---------10------------10--(10)----10------|
|---------9-----9h11-9-----9h12-12p9-----9---(9)-----9------|
|-10s12----------------12------------12----------12---------|
|------------------------------------------------------(12)-|
|--8s10-----------------------------------------------------|
|
|-----------------------------------------------------------|
|------------4--4--4-4-----5-----5----5--5----6---6--7---7--|
|--5----5-5/------------------------------------------------|
|-----------------------------------------------------------|


    \1.5_________/
|------------------------||
|------------------------||
|---0-----------(0)--(0)-||
|-0----------------------||
|------------------------||
|------------------------||
|
|-7----------------------||
|------------------------||
|------------------------||
|------------------------||


  (Em)
|---------15--------------------------15--------------15-----------------|
|-15b17------15pb17r(15)b17------(15)----15pb17r(15)--15b17----15p12-----|
|------------------------------------------------------------------------|
|--------------------------------------------------------------------14--|
|------------------------------------------------------------------------|
|------------------------------------------------------------------------|
|
|------------------------------------------------------------------------|
|------------------------------------------------------------------------|
|--7-------7----------------(7)--------7----------7----7-----5--7-----7--|
|----------------------------------7-------------------------------------|


  (G)
   ~~~~~        ~~~~~                                ~~
|-------------------------------------------------------------|
|-----------15---------15-------------------------------------|
|-14b16--------14b16------14pb16r(14)-12-(12)-------12--------|
|---------------------------------------------12h14--------14-|
|-------------------------------------------------------------|
|-------------------------------------------------------------|
|
|-------------------------------------------------------------|
|--5----(5)----------5----(5)--------------5------5----5-4--5-|
|---------------5----------------------0----------------------|
|-------------------------------------------------------------|


  (Am)
      ~~~~~~~~                 ~~~~~~~~~
|-------------------------------------------------------------|
|--------------------------------------------------15b17==15r-|
|-14-14--(14)---16-16--(16)---16b17s=12-14------12------------|
|------------------------------------------14-----------------|
|-------------------------------------------------------------|
|-------------------------------------------------------------|
|
|-------------------------------------------------------------|
|--7----------7----(7)------5--7------7-----7-5--7--7------5--|
|-------------------------------------------------------------|
|-------------------------------------------------------------|


  (Em)
|--------------12-------12-15-12------------------------------------------------|
|-15b17-15b17-----12-15-----------12h15p12--------------------------------------|
|------------------------------------------14-14-12----12-----------------------|
|---------------------------------------------------14----14p12----12h14--12----|
|---------------------------------------------------------------14-----------14-|
|-------------------------------------------------------------------------------|
|
|-------------------------------------------------------------------------------|
|-------------------------------------9--------------------------6h=7--8--------|
|--7---------------7----------(7)--------7--------7-----------------------------|
|-------------------------------------------------------------------------------|


  (Bm)
                          ~~                         ~~
|---------------------------------------------------------------|
|---------------------------------------------------------------|
|-------(12)-(12)-12s14s=12----12s14-14s12----12s14-12----------|
|--------12---14------------14-------------14------------14-----|
|-12-14---------------------------------------------------------|
|---------------------------------------------------------------|
|
|---------------------------------------------------------------|
|--9------------------9---------9--------9-------------9----9-9-|
|-------------------------9-------------------------------9-----|
|---------------------------------------------------------------|


  (Em)
                            ~~~~~
|------------------------------------------------------------------------|
|-----------13p12----------15b17---15b17r(15)-12-15b17---15b17-15pb17\---|
|-------12--------12----12-----------------------------------------------|
|-12-14--------------12--------------------------------------------------|
|------------------------------------------------------------------------|
|----------------------------------------------------------------------0-|
|
|------------------------------------------------------------------------|
|--7----(7)--------7--------7s===2---------------------2--3-----4--------|
|---------------7-------------------3------3---3-------------------------|
|------------------------------------------------------------------------|


  Gadd9             F
|---------5p=3--3------------------|
|-------3-3-(3)-3---1---1---1--1---|
|-------4-4-(4)-4---2---2---2--2---|
|-/5--5-5-5-(5)-5---3-3-3---3--3---|
|-------------------------3----3-3-|
|-/3--3-3-3-(3)-3-0-1----------1---|
|
|-------7-----------------5-5--5---|
|--5--5---5-----5-5-3-------3--3---|
|----------------------------------|
|----------------------------------|


                       H.=H
  Em7                  Eb                      N.C.
 2/4                  4/4
|--------------------|----------------------------------||
|--------------------|-------8-(8)---(8)---(8)----------||
|--------7-7---------|-----8-8-(8)---(8)---(8)----12-14-||
|-----9--9-9---------|---8---8-(8)---(8)---(8)-14-------||
|-----7--7-7---2-2s5-|-6-----6-(6)---(6)---(6)----------||
|-0---0------0-0-----|----------------------------------||
|
|----------4-4---4---|-------8--------------------------||
|-2--(2)-----2---2---|----------8-----------------------||
|--------------------|-6-----------6--------------------||
|--------------------|----------------------------------||


  Free Time Q=67
  N.C.
|----------------------------------------------------:
|----------------------------------------------------:
|-14b16--12h14p12----12----12-14-11tr12---9-11-6-7-9-:
|-----------------14----14---------------------------:
|----------------------------------------------------:
|----------------------------------------------------:
|
|----------------------------------------------------:
|----------------------------------------------------:
|-(6)------------------------------------------------:
|----------------------------------------------------:


                   ~    ~    ~    ~
|------------------------------------:
|------------------------------------:
|-7h9p7-5-4-2s5--5s7--7s2--2s9--9s2--:
|------------------------------------:
|------------------------------------:
|------------------------------------:
|
|------------------------------------:
|------------------------------------:
|------------------------------------:
|------------------------------------:


                                                            Gadd9
                                           3/4             4/4
     ~~                 ~        ~             ~~~~~~~
|-----------------------------------------:---------------:-^5----------------*|
|-----------------------------------------:---------------:-^3----------------*|
|-2s11--11h12p11s9-11p9s7--7h9p7s5--5h7p5-:-5s=4--(4)-----:-^4----------------*|
|-----------------------------------------:---------------:-^5----------------*|
|-----------------------------------------:---------------:-------------------*|
|-----------------------------------------:---------------:-^3----------------*|
|
|                                                            TP        TP
|-----------------------------------------:---------------:-------------------*|
|-----------------------------------------:---------------:--5---(5)---5---5--*|
|-----------------------------------------:---------------:-------------------*|
|-----------------------------------------:---------------:-------------------*|


Comments