Hendrix Jimi - I Dont Live Today Chords & Tabs

 

I Dont Live Today Chords & Tabs

Hendrix Jimi Chords & Tabs

Version: 1 Type: Tab 2 ratings
1 star 2 stars 3 stars 4 stars 5 stars
comments

I Dont Live Today Tab

i noticed nobody had posted this yet. i was looking for fit on here.
i figured this out by ear but i think it is real close. it sounds
right to me anyways.so here ya are. if you got any questions email me.

tune down 1/2 step
"i don't live today"
jimi hendrix


e -----------------
b -------10-10--9-7     intro 2x
g --------8--8--8-8
d ----9---9--9--9-9
a  /6--------------
e 7-----7----------
[ Tab from: http://www.guitartabs.cc/tabs/h/hendrix_jimi/i_dont_live_today_tab.html ]
e-------------
b-------------   will i live tommorrow?
g-------------
d-9-7--------9    d-7-7--------9
a-----9-7-----    a-----9-7----- 2x
e---------10--    e--------10---

e-------------  
b-------------
g--------------
d-7-7----------will i live tommorrow?
a-----9-7------ 
e---------10--5 

e--------------
b--------------
g--------------
d-7-7---------- i know for sure
a-----9-7------
e---------10--2



 " i don't live today!"
e---------------
b-10-10----10-10
g-9^-9^----9^-9^
d----------------
a---------------
e---------------

e-----------------
b-----------------
g-----------------
d --9--4---7---8-9
a ---------------9
e 7---2--5---6---7
  
Comments