Hendrix Jimi - Hey Joe Chords & Tabs

 

Hey Joe Chords & Tabs

Hendrix Jimi Chords & Tabs

Version: 3 Type: Tab 5 ratings
1 star 2 stars 3 stars 4 stars 5 stars
comments

Hey Joe Tab

   
Title: Hey Joe
Artist: Jimi Hendrix
Tab-Autor: T. Thiel / Germany
e-mail: grand_T@web.de
subject: intro_Hey Joe 


First of all this is my first Tab, if you hav sugesstions hot to correct 
this Tab mail me!
So, this is the intro of Hey Joe, I think it's right, it's played very 
quickly, it need a little bit of practise to do it, so good luck!
   

s - slide up/down to note 
   
  
E|-0---0-------------0-------------------0-------------------|
B|-3s5-3-------------0-------------------0-------------------|
G|-------4s2-0-------1-------------------1--------7-----7----|
D|-------------2-----2----5----5---4--2-------7s9---7s9---s9-|
A|-----------------2------5----5---4--2----------------------|
E|---------------0------0----0---0----0----------------------|
                 ^
                 Let ring

Chords:
[ Tab from: http://www.guitartabs.cc/tabs/h/hendrix_jimi/hey_joe_tab_ver_3.html ]
   C                G          D                  A

E|—-0---0---x-x-x-x--3-3----|-x-x-2---2---x-x-x-x--0-0----|
B|—-1---1---x-x-x-x—-3-3----|-x-x-3---3---x-x-x-x--2-2----|
G|—-0---0---x-x-x-x--4-4----|-x-x-2---2---x-x-x-x--2-2----|
D|—-2---2---x-x-x-x--5-5----|-x-x-0---0---x-x-x-x--2-2----|
A|—-3---3---x-x-x-x--5-5----|-x-x------------------0-0----|
E|—-x---x---x-x-x-x--3-3----|-x-x-------------------------|


       E   E   E    E7   E9 E   E   E    E7

E|--x-x-0---0---0-----0|---3-0---0---0-----0-x-x-|
B|--x-x-0---0---0-----3|---0-0---0---0-----3-x-x-|
G|--x-x-1---1---1-----1|---1-1---1---1-----1-x-x-|
D|--x-x-2---2---2---2-2|-2-2-2---2---2---2-2-x-x-|
A|--x-x-2---2---2---2-2|-2-2-2---2---2---2-2-x-x-|
E|--x-x-0---0---0---0--|-0---0---0---0---0---x-x-|


Have Fun ! p.s. Jimi Hendrix is GOD !!!
Comments