Hendrix Jimi - Hey Joe Chords & Tabs

 

Hey Joe Chords & Tabs

Hendrix Jimi Chords & Tabs

Version: 2 Type: Tab 7 ratings
1 star 2 stars 3 stars 4 stars 5 stars
comments

Hey Joe Tab

   
  					  HEY JOE
				JIMI			HENDRIX

Intro:

E—-0-----0----|-----------------------|--------------|--------------
B—-3\5---3----|-----------------------|--------------|--------------
G-------------|-----------------------|--------------|--------------
D-------------|-7p6-5-----------------|--5—-5—-4-2---|----7-----7---
A-------------|-------7p6-5-----------|--5—-5—-4-2---|-7h9---7h9---7
E-------------|--------------5—-3—-0—-|-0—-0—-0—-0---|--------------

Chords:

   C                G          D                  A

   D   D   D u D u  D D      D u  D   D   D u D u  D D

E|—-0---0---x-x-x-x--3-3----|-x-x-2---2---x-x-x-x—-0-0----|
B|—-1---1---x-x-x-x—-3-3----|-x-x-3---3---x-x-x-x—-2-2----|
G|—-0---0---x-x-x-x--4-4----|-x-x-2---2---x-x-x-x—-2-2----|
D|—-2---2---x-x-x-x--5-5----|-x-x-0---0---x-x-x-x--2-2----|
A|—-3---3---x-x-x-x--5-5----|-x-x------------------0-0----|
E|—-x---x---x-x-x-x--3-3----|-x-x-------------------------|

        E   E   E    E7   E9 E   E   E    E7

    D u D   D   D   D D D D  D   D   D   D D D u
[ Tab from: http://www.guitartabs.cc/tabs/h/hendrix_jimi/hey_joe_tab_ver_2.html ]
E|--x-x-0---0---0-----0|---3-0---0---0-----0-x-x-|
B|--x-x-0---0---0-----3|---0-0---0---0-----3-x-x-|
G|--x-x-1---1---1-----1|---1-1---1---1-----1-x-x-|
D|--x-x-2---2---2---2-2|-2-2-2---2---2---2-2-x-x-|
A|--x-x-2---2---2---2-2|-2-2-2---2---2---2-2-x-x-|
E|--x-x-0---0---0---0--|-0---0---0---0---0---x-x-|

Bass 1

D|----------------|---------------|----------------|-5b----------------|
A|--3---3-----2-3-|-5---5-----4-5-|-7---7---7----5-|----7---7---7----5-|
E|--------3-3-----|-------5-5-----|-------------7--|-7--------------7--|

Bass 2

D|-----------------|-----------------|----------------|-5b----------------|
A|--3--------2-3-4-|-5---------4-5-6-|-7---7---7----5-|----7---7---7----5-|
E|---0-1-2-3-------|---2-3-4-5-------|-------------7--|-7--------------7--|

Chords used:

C:     0 1 0 2 3 x
G:     3 3 4 5 5 3   or   3 3 0 0 2 3   or   3 0 0 0 2 3  it’s the same
D:     2 3 2 0 x x
A:     0 2 2 2 0 x
E:     0 2 2 1 0 0
E7:    0 2 2 1 3 0
E9:    0 2 2 1 0 3

The mute should be done with the right hand. The little “u” and “d” mean up and down (how to pick the chord). The big letters are the chords. The two versions of the bass line are mentioned in the song. I don’t remember what the sequence is, but I think that listening to the record will help. Hope you can find the lyrics and enjoy playing this song. I have no idea how to play the solo, but the rest of the song is OK. 

For suggestions, questions and everything else: nikolakalchev@yahoo.com

All you need is love (The Beatles)

Nikola Kalchev
Comments