Hendrix Jimi - Hey Joe Correct!! Chords & Tabs

 

Hey Joe Correct!! Chords & Tabs

Hendrix Jimi Chords & Tabs

Version: 1 Type: Tab 8 ratings
1 star 2 stars 3 stars 4 stars 5 stars
comments

Hey Joe Correct!! Tab

   
Jimi Hendrix
Hey Joe


Symbols:
/=slide up
\=slide down
h=hammer on


Intro:

e--0------------------0---------------------------0--------------|
b--3/5\3--------------0---------------------------0--------------|
G--------2b-0---------1---------------------------1--------------|
D-------------3-0-----2-------5-----5-----4----2--2------0----0--|
A---------------------2-------4h5---4h5---4----2--2---0h2--0h2---|
E------------------0--0-----0-----0-----0---------0-------------3|

                      E                           E

Verse:
[ Tab from: http://www.guitartabs.cc/tabs/h/hendrix_jimi/hey_joe_correct_tab.html ]
e-----------------------------------------0h2-------------------------0---------------------------0--------------|
b--------------1--------------------------3---3------------0h2--------0---------------------------0--------------|
G----------0------------------0--------2---------2---------2---2------1---------------------------1--------------|
D-----0h2------------------0--------0-------------------2---------2---2-------5-----5-----4----2--2------0----0--| x 8
A--3------------------0h2----------------------------0----------------2-------4h5---4h5---4----2--2---0h2--0h2---|
E------------------3--------------------------------------------------0-----0-----0-----0---------0-------------3|

   C               G                D                A                E                           E


Solo: improvise around this scale

e---12---15|
b---12---15|
G---12--14-|
D---12--14-|
A---12--14-|
E---12---15|



Interlude:

e-------------------------------------------------------------0--------------|
b-------------------------------------------------------------0--------------|
G-------------------------------------------------------------1--------------|
D-----------------------------------------5-----5-----4----2--2------0----0--|
A--3---------2-3-4-5---------4-5-6-8------4h5---4h5---4----2--2---0h2--0h2---|
E----0-1-2-3---------2-3-4-5-------0----0-----0-----0---------0-------------3|



You can put the pieces together yourself.



Henry Jimix









Comments