Hendrix Jimi - Hey Joe Complete Chords & Tabs

 

Hey Joe Complete Chords & Tabs

Hendrix Jimi Chords & Tabs

Version: 1 Type: Tab 2 ratings
1 star 2 stars 3 stars 4 stars 5 stars
comments

Hey Joe Complete Tab

Hey Joe 
Jimi Hendrix

first time tabber but i hate wrong tabs so here it is sraight from my 
guitar one magazine:


      Intro
        Moderately slow rock= 82

Gtr 1:(clean)
|-----0----0----------------|----------0--------------------------|
|-----3/5--53--------------|----------0--------------------------|
|--------------4/2p0--------|----------1------6/7------7------6---|
|---------------------0h2---|-----------------x--------5------6---|
|---------------------------|-----------------4/5------5------4---|
|---------------------------|--0---0--------0--------0------0-----|

   --------------------------------------|
   ---------------------7--------7-------|
   --4-----4------------7--7-----7-------|
   --2-----2-------7h9-----7h9-------9--|
   --2-----2-----------------------------|
   --0-----0---0-------------------------|



      Verse
         w/ misc background

Gtr 1:
 Rhy. Fig. 1              *T
|---------------------------------5--3-----------|----------------------------------------------|
|o--------------------------------3--3-----------|----------------------------------------------|
|--------------5---------------------------------|------7---7-----------------------6------6----|
|--------------5---------------------------------|--------------7--7------7---------7------7--7-|
|o---/3----3----------3-------------------5------|--5-----------7--8h9----7---------7------7--7-|
|--------------------------3-----------------/5--|------------------------5-----5-------------5-|


                                        1/4                                     End Rhy. Fig. 1
---------------------------------------------|----------------------------------------------|
---------------------------------------------|----------------------------------------------|
-------------1-------------------------------|----------1------1---1---------1-------x--x---|
-------------2-----------0--0----------------|----------2------2---2p0---0---2-------x--x---|
-------------2------0----0--0-------2----^---|----------2----------------------------x--x---|
-----0----------------------------------3b---|---0------0------------------------0----------|


Solo:
      1                      1                          1                      1                     1/4
------^--------12--12-------------------------------|---^--------12---12--12-----------------------------|
----15b~~~~~~------15---12---^----------------------|--15b~~~~~-------15--12---^----12---------------^---|
------------------------12-14br-(14)-p12------12~~~~|-------------------------14b-------14----12/1412b--|
------------------------------------------14--------|----------------------------------------------------|
[ Tab from: http://www.guitartabs.cc/tabs/h/hendrix_jimi/hey_joe_complete_tab.html ]
                                  PM                                          1              1
----------------------------------------------------------------|-------------^--------------^----------|
-----------------------------------------------------12~~-------|-----------15b-------------15b~~~~~~~--|
-------------------12------12-----------------------12~~-------|-----------12--------------------------|
-------14~~~~~~--------14------------------12---14---------14--|---------------------------------------|
--------------------------------------/14-------14--------------|---------------------------------------|
-----------------------------------0----------------------------|---------------------------------------|

                    1                1/4                                       1             1                  1                  1
---12--12--12-------------12---------------------------------------------|---------------12-15br-(15)~~~~-12--------------12-----------|
---12--15--12----12-^-----12----15-----^-----12--------------------------|-----^----12--------------------------^-----15------15---^---|
-----------------14b-----------------14b------------------14--12~~~~~~---|---14b-------------------------------14b----------------14b--|
--------------------------------------------------0---14-----------------|-------------------------------------------------------------|

---------------------------------------|-------------------------------|
---------------------------------------|-------------------------------|
------12~~~~~~~~----------------9--11--|---12~~~~~---------------------|
-----------------14------/11----------|------------14----------------|
---------------------------------------|-------------------------------|
-----------------------0---------------|------------------------/20---|




   Interlude
 
Gtr. 1
  Rhy. Fig. 2
-----------------------------------------------|----------------------------------------|-------------------------------------0--|
-----------------------------------------------|----------------------------------------|------9--------------------------9---0--|
-----------------------------------------------|----------------------------------------|------9----9----7--7-----7--7h9--9------|
-----------------------------------------------|----------------------------------------|------9----9----7--7-----7--7h9--9------|
---3--------------------------2-----3-----4----|-5-------------------------4----5----6--|-7--------------------------------------|
--------0----1-----2----3----------------------|-----2----3-----4-----5-----------------|----------------------------------------|


                         End Rhy. Fig 2
----------------------------------------|
----------------------------------------|
--7h9--9----9----9----9----9----9----9--|
--7h9--9----9----9----9----9----9----9--|
----------------------------------------|
----------------------------------------|


thats about it!  you can figure out where the pieces go, peace!
Comments