Hendrix Jimi - Hey Joe Chords & Tabs

 

Hey Joe Chords & Tabs

Hendrix Jimi Chords & Tabs

Version: 1 Type: Bass Tab 0 ratings
1 star 2 stars 3 stars 4 stars 5 stars
comments

Hey Joe Bass Tab

       hey joe


1-------------------------------------------------
2---------2----4---5------------------------------
3------3-------------------2---4--5---------------
4-----------------------3-------------------------
[ Tab from: http://www.guitartabs.cc/tabs/h/hendrix_jimi/hey_joe_btab.html ]
1-------------------------------------------------
2----------4----6----7----------------------------
3------5-----------------------4----6----7--------
4--------------------------5----------------------

1-------------------------------------------------
2----------6---8---9------------6---8---9---------
3------7-------------------7----------------------
4-------------------------------------------------

first time tabbing so dont really know what to do

mediumus@hotmail.com
Comments