Hendrix Jimi - Hey Baby Chords & Tabs

 

Hey Baby Chords & Tabs

Hendrix Jimi Chords & Tabs

Version: 2 Type: Tab 0 ratings
1 star 2 stars 3 stars 4 stars 5 stars
comments

Hey Baby Tab

#-----------------------------------------------------------------------------#
#-- File created with Instab - http://www.pconline.com/~smcarey/instab.html --#
#-----------------------------------------------------------------------------#

Author/Artist: Jimi Hendrix
Title: Hey Baby (New Rising Sun)
Album: Land of the New Rising Sun
Transcribed by: CP
Email: experience-hendrix@web.de

pm..	= palm mute
/	= slide up
3h5	= hammer on
5p3	= pull off
x	= fret hand muting


Listen to the song to get the correct rhythm.

------------------------------------------------------------------------------
---------0----------------------------1-1----------------------------3h5p3----
---------1----------------------------0-0----------------------------4--------
------------------------------------2---------------------2-3-5---------------
-----2------------------0-1-2---3----------3---0-1-2-3-/5----------x----------
-0----------0---0-1-2-3------------------------------------------3------------
 pm  .      .   . . . . . . .   .   .      .   . . . .  . . . .  .            

----------------------------------------5-----------0-------------------------
--------3-3h5p3----------7-7------------5-5-------0-0-------------------------
--------4-------4--------7-7-7------------6-------1---------------------------
-5----------------5----------7-7-----7----7------------3-2-1-0----------------
---------------------5-5-------7---7-7----------2--------------3-2-1-0--------
----3-3----------------------------5----------0-------------------------------
 .  . .                                                                       

------------------------------------------------------------------------------
--------1---------------------------------------------------------------------
------0-0---------------------------------------------------------------------
------2----------0----------------------------1-0---3-1-0---------------------
----3----------2---2-0------1-0------1-0----------3-------3-1-0---------------
-3---------1-3---------1--------3-1------3-1--------------------3-1-0---------
                                                                              

------------------------------------------------------------------------------
-8--8-8-8-------6--6-6-6------------------------------------------------------
-8--8-8-8--7----6--6-6-6--4-------5-------6-----7-7-7-------------------------
-8--8-8-8--8----6--6-6-6--5-------6-------7-----8-8-8-----8-10p8--------------
-6--6-6-6--8----4--4-4-4--5-----6-------7-------8-8-8--10--------10-----------
-----------6--------------3---4-----4/5-----5/6-------------------------------
                                                                              
[ Tab from: http://www.guitartabs.cc/tabs/h/hendrix_jimi/hey_baby_tab_ver_2.html ]
------------------------------------------------------------------------------
-8--8-8-8-------6--6-6-6------------------------------------------------------
-8--8-8-8--7----6--6-6-6--4-----5-5--5-6-6-6------7-7-7--8-8---9--------------
-8--8-8-8--8----6--6-6-6--5-----6-6--6-7-7-7------8-8-8--9-9--10--------------
-6--6-6-6--8----4--4-4-4--5-----6-6--6-7-7-7------8-8-8--9-9--10--------------
-----------6--------------3---4------4/5------5/6-----------------------------
                                                                              

------------------------------------------------------------------------------
-------10---------------------------------6-----------------------------------
-10----10-10------------------------------7-7------7-7-7-7-7------------------
-10----10-10-10-------------------------8---8------8-8-8-8-8------------------
--8--------8--8-8-10-8----8-------------8---8------8-8-8-8-8-0----------------
-----------------------12---12-10-8---6----------6----------------------------
                                                                              

------------------------------------------------------------------------------
-----7-7-7-----------------------3--------------3-33--------------------------
---7-7-7-7-----------------------4-----4--------4-44--------------------------
-7-7-7-7-7---------------------5-5-------5-5----5-55--------------------------
-5-5-5-----5-7-5---5-----------5----------------------------------------------
-----------------9---9-7-5---3------------------------------------------------
                                                                              

------------------------------0-0---------------------------------------------
-----4-4----------------------0-0---------------------------------------------
---4-4-4---------------------1------------------------------------------------
------------------------------------------------------------------------------
-2-------2-4-2---2------------------------------------------------------------
---------------6---6-4-2---0--------------------------------------------------
                                                                              

-----5--5---------------------------------------------------------------------
-----x--x---3h5p3---1---1--1---3-3-3-----------------3h5p3-------1-1-1--3-3-3-
-----x--x---4-------2-2-2--2---2-2-2-----5-5-5-x-----------4-----2-2-2--2-2-2-
--------------------3-3--------------------7-7-x---5---------------3-3--------
----------x---------x--------------------------x------------------------------
-5-5------3---------1------------------5-------x-3-----------0-1--------------
     rake                                                                     

	..... it's not the whole song, but the first 1min15sec. I'll try to
	      tab the rest when Jimi comes next Sunday for an afternoon tea.
	      He often comes down from heaven to show me and Amm how to play 
	      his wicked stuff.
	      And he told me a story yesterday, about the sweet love between 
	      the moon and the deep blue sea. And then he spread his wings
	      high over me, he said, he's going to come back tomorrow.
	      An' I said, ...
	      You know, we are good friends. He'll help me with the difficult 
	      things in this song. 
	      Jimi lives!!! He's the best!!!
	      	

Comments