Hendrix Jimi - Hey Baby Chords & Tabs

 

Hey Baby Chords & Tabs

Hendrix Jimi Chords & Tabs

Version: 1 Type: Bass Tab 0 ratings
1 star 2 stars 3 stars 4 stars 5 stars
comments

Hey Baby Bass Tab

Hey Baby (New Rising Sun) - Jimi Hendrix

  intro (first 1:05)
G|----------------------------------6-8-9-10-11--11---11-11-119----------------------------
D|--------------6-7-8--9----6-7-8-9------------------------------11--119-------------------
A|6--6--6-7-8-9--------------------------------------9--------------------11--119----------
E|---------------------------------------------------------------------------------11--11--
[ Tab from: http://www.guitartabs.cc/tabs/h/hendrix_jimi/hey_baby_btab.html ]
9-8-7-6------------------------------------------------------------------------------------
--------9-8-7-6----9---------------------------------------2-------------------------------
----------------9----------2-4-2---------------------5-4-2---5-4-2-----------5-------5-----
-----------------------0-4-------4-0-5-4-2-0-5-4-2-0---------------5-4-2-1-0------3-------0


-------------------------------------------------------------------------------------------
-------------------------------------------------------------------------------------------
-----------------5-------5----------------------5h7--7--7-9-7-6-7-6------------------------
--3--34--45---5-------3-------0--3--34--45---5----------------------9-7-5--5--5--5--9--9--9


----------------------------------------------------------|
--------------------------------------------------1--1----|
----------------------------------------------------------|
-11-9-8-9-8-6-4-2--2--2--2--6--6--6-8-6-5-6-5-3-1---------|

There's a start.
tabbed by Achilles (blue_sincere@hotmail.com)

Comments