Hendrix Jimi - Changes Chords & Tabs

 

Changes Chords & Tabs

Hendrix Jimi Chords & Tabs

Version: 1 Type: Bass Tab 0 ratings
1 star 2 stars 3 stars 4 stars 5 stars
comments

Changes Bass Tab

Changes - Jimi Hendrix

  intro
G|----------------11---13-12------------------------|
D|---------------------------12---------------------|
A|9-8-----------6---------------9-8-----------6-9--\|
E|-----9-8--8-9----------------------9-8--8-9-------|
[ Tab from: http://www.guitartabs.cc/tabs/h/hendrix_jimi/changes_btab.html ]
   interlude (x2)
G|----------------------------------------|
D|------4---------------------------------|
A|4h6-6---6-4-2-------------4---------6---|
E|--------------4-4---4h6-6---6-4-2-0-----|

  verse riff
G|-------------------------------------|
D|-----------2h31-------------2h31h21--|
A|----2-2-2h3----------2-2-2h3---------|
E|0-0--------------0-0-----------------|

tabbed by Achilles (blue_sincere@hotmail.com)

Comments